Song name
# A B C D E F G H I J K L M N O P Q R S T U V W X Y Z

Zolof The Rock And Roll Destroyer - Plays Pretty For Baby tab

Tuning: Standard
Tabbed by: nelson14

this song is originally recorded by Zolof the Rock and Roll Destroyer..
NOT SAOSIN......

riff 1(verse):
|--------------------------------------------------------------------|
|--------------------------------------------------------------------|
|-8-8-8-8-8-10-8-----------------------------------------------------| (x6)
|-6-6-6-6-6-6--6--8-8-8-8-8-8-8------------------6-6-6-6-6-6-6-------|
|-----------------6-6-6-6-6-6-6--8-8-8-8-8-10-8--4-4-4-4-4-4-4-------|
|--------------------------------6-6-6-6-6-6--6----------------------|

riff 2 (chorus)
|--------------------------------------------------------------------|
|--------------------------------------------------------------------|
|--------------------------------------------------------------------| (x2)
|------------------8-8-8-8-8-8-8-8-------------------6-6-6-6-6-6-6-6-|
|-6-6-6-6-6-6-6-6--6-6-6-6-6-6-6-6--8-8-8-8-8-8-8-8--4-4-4-4-4-4-4-4-|
|-4-4-4-4-4-4-4-4-------------------6-6-6-6-6-6-6-6------------------|

repeat riff 1
   "    "   2
   "    "   1

that's all....

plss add me in friendster...
nelson_katorsze@yahoo.com.....
Tap to rate this tab
 
# A B C D E F G H I J K L M N O P Q R S T U V W X Y Z