Song name
# A B C D E F G H I J K L M N O P Q R S T U V W X Y Z

Zolof The Rock And Roll Destroyer - Mean Old Coot chords

Highlighted       Show chord diagrams
-------------------------------------------------------------------------------
			     Mean Old Coot - Zolof the Rock and Roll Destroyer
-------------------------------------------------------------------------------
Tabbed by:Alex Muench
Email:x02flash@gmail.com


Standard Tuning
Use the following chords:
    A        F#       E        D        B     high E    high B
|---5--------2--------0--------5--------2-------7---------7------|
|---5--------2--------0--------7--------4-------9---------7------|
|---5--------3--------1--------7--------4-------9---------8------|
|---6--------4--------2--------7--------4-------9---------9------|
|---7--------4--------2--------5--------2-------7---------9------|
|---5--------2--------0--------5--------2-------7---------7------|



Intro:
A F# E D

A              F#        E           D
Hey pea we were playing. we're all so tuckered out.
A              F#        E           D
Sorry i'm becoming a mean old coot as it were.
B               D        A           
We stayed until 2. let's up and get away from here.
high E                    high B
And there's hours to go. let's up and get away from here.
D
You don't even know.
D (strike once then mute)
It's 123 chop!
A              F#       
Calm down. Baby calm down.
E             D
If i were you i'd calm down.

A F# E D

B               D        A   
We stayed until 2. let's up and get away from here.
high E                    high B
And there's hours to go. let's up and get away from here.
D
You don't even know.
D (strike once then mute)
It's 123 chop!

Outro: (Progressively slow down strumming, play last chord very slowly)

A F# E D
Tap to rate this tab
 
# A B C D E F G H I J K L M N O P Q R S T U V W X Y Z