Song name
# A B C D E F G H I J K L M N O P Q R S T U V W X Y Z

Zolof The Rock And Roll Destroyer - Riding Trains In November tab

Sounds pretty accurate! haha.


e|------------------------------------------|
b|---8-88-x-xx-x-xx-------------------------|
g|---x-xx-7-77-8-88-------------------------|
d|---x-xx-x-xx-x-xx-8-88--------------------|
a|---6-66-6-66-6-66-6-66--------------------|
E|---6-66-6-66-6-66-6-66--------------------|

e|---------------------------------------------|
b|---8-88-x-xx-x-xx----------------------------|
g|---x-xx-7-77-8-88-10-1010--------------------|
d|---x-xx-x-xx-x-xx-x--x-x---------------------|
a|---6-66-6-66-6-66-6--6-6---------------------|
E|---6-66-6-66-6-66-6--6-6---------------------|
Tap to rate this tab
# A B C D E F G H I J K L M N O P Q R S T U V W X Y Z