Guitaretab - guitar tabs
Song name
# A B C D E F G H I J K L M N O P Q R S T U V W X Y Z

Zolof The Rock And Roll Destroyer - Hot Situation tab

Intro/Verse
eb-------------------------------------|
Bb-------------------------------------|
Gb-----5-5/7-7---7---------------------|
Db-3---5-5/7-7---7-8-8/10-10-----------|x7
Ab-3---3-3/5-5---5-8-8/10-10-----------|
Eb-1---------------6-6/8--8------------|

Pre-Chorus
eb-------------------------------------|
Bb-------------------------------------|
Gb-----5-5/7-7---7---------------------|
Db-3---5-5/7-7---7-8-8-----------------|x1
Ab-3---3-3/5-5---5-8-8-----------------|
Eb-1---------------6-6pm---------------|
[ Tab from: http://www.guitaretab.com/z/zolof-the-rock-and-roll-destroyer/84488.html ]
Chorus
eb-------------------------------------|
Bb-------------------------------------|
Gb-5-----------10----------------------|
Db-5-x8--8-----10-x4-------------------| x3
Ab-3-----8-x4--8-----------------------|
Eb-------6-----------------------------|

Bridge
eb-------------------------------------|
Bb-------------------------------------|
Gb-7-----------------------------------|
Db-7------------8----------------------|x1
Ab-5-let ring---8-let ring-------------|
Eb--------------6----------------------|

I don't know the solo.
Related for Hot Situation tab
Advertisement will be closed in 10 seconds