Song name
# A B C D E F G H I J K L M N O P Q R S T U V W X Y Z

Zombeast - Flesh Eaters tab

E|--------------|
B|--------------|
G|-7------------|-x2
D|-7---7-8-7-5--|
A|-5---7-8-7-5--|
E|-----5-6-5-3--|

E|---------------------------|
B|---------------------------|
G|-7--9-10-12-14--15-14-12---|
D|-7--9-10-12-14--15-14-12---|
A|-5--7-8--10-12--13-12-10---|
E|---------------------------|

A.  E|-------|   B.|----------------|
    B|-------|     |----------------|
    G|-7-5-7-|-x2  |-10-9-7-5-----7-|-Both A and B togeter played x2.
    D|-7-5-7-|     |-10-9-7-5-8-5-7-|
    A|-5-3-5-|     |-8--7-5-3-8-5-5-|
    E|-------|     |----------6-3---|

C.  E|--------|
    B|--------|
    G|--------|-Played after A and B, after you play them twice.
    D|-8-5-7--|
    A|-8-5-7--|
    E|-6-3-5--|

D.  E|-------------| E.|------------|
    B|-------------|   |------------|
    G|-7-10------7-|   |-10-9-7-5-7-|-Both D and E together, played x2.
    D|-7-10-10-7-7-|   |-10-9-7-5-7-|
    A|-5-8--10-7-5-|   |-8--7-5-3-5-|
    E|------8--5---|   |------------|

That's pretty much it. You just have to pretty much repeat it.

Tabs by me, Wes.
Tap to rate this tab
 
# A B C D E F G H I J K L M N O P Q R S T U V W X Y Z