Song name
# A B C D E F G H I J K L M N O P Q R S T U V W X Y Z

Zombie Ghost Train - Zombie Beach tab

Hey second tab, for the same band. Simple intro for zombie beach. pretty
                                444
good song, had trouble with the 222 though, so yeh any comments are mucho welcome.

Intro:

e---------------------------------------------------------------|
b---------------------------------------------------------------|
g-----------------------------------------------------444-------|
d---------2-3-2--------------------------------2-3-2--222-------|
a-0-0h2h3------------------2-3-2-------0-0h2h3------------------|
e-----------------0-0h2h3---------------------------------------|

e---------------------------------------------------------------|
b---------------------------------------------------------------|
g---------------------------------------------------------------|
d----------2-3-2-------------------------------2----------------|
a-00-0h2h3------------------2-3-2-------0-0h2h3-----------------|
e------------------0-0h2h3-----------------------0-0h2h3-4/5----|

Thats it really, I'll tab the rest later or steal my friends tab when he does it.
Tap to rate this tab
# A B C D E F G H I J K L M N O P Q R S T U V W X Y Z