Song name
# A B C D E F G H I J K L M N O P Q R S T U V W X Y Z

Zombies - Tell Her No chords

Highlighted       Show chord diagrams
Artist: The Zombies
Song: Tell her no
Tabbed by:DJ
20th Mar 2013

Tuning:Standard

CAPO: 2nd fret (Sounds in key of F#m)

An early track by The Zombies, from 1964

********************************************************************

   Em9       Em4/A             Em9      Em4/A            Em9
e|----2-----|--0---0--0--|--0----2----|--0---0--0--|--0----2----|
B|--3----3--|--0---0--0--|--0--3---3--|--0---0--0--|--0--3---3--|
G|----------|--0---0--0--|--0---------|--0---0--0--|--0---------|
D|----------|--2---2--2--|--2---------|--2---2--2--|--2---------|
A|----------|--0---0--0--|--0---------|--0---0--0--|--0---------|
E|----------|------------|------------|------------|------------|


Dmaj7                                      Em    A6
      And if she should tell you, "Come closer!"
Dmaj7                                  Em    A6
      And if she tempts you with her charms, 
           Bm
Tell her, "No, no, no, no!   No,no! No,no!
D                                 Bm
No, no, no, no!   No,no! No,no!   No, no, no, no, no!
      Dmaj7                Em7        A7     Dmaj7
Don't hurt me now, for her love be - longs to me!


Dmaj7                                Em                 A6
      And if she should tell you,"I love you!" A - woh -oh, oh-oh!
Dmaj7                                  Em   A6
      And if she tempts you with her charms,
Bm                            D
     Oh, oh----oh, oh! Don't take her love from my arms,
Bm
     Oh, woh, oh, oh! Oh ----, oh, oh!
      Dmaj7                Em7        A7     Dmaj7
Don't hurt me now, for her love be - longs to me!


Bm                                     Dmaj7
   I know she's the kind of girl who'd throw my love away,
Bm                                  Em                 A
    But I still love her so, don't hurt me now, don't hurt me now!


Dmaj7                           Em                   A6
       And if she tells you, "I love you!"  A - woh - oh, oh!
Dmaj7                                 Em   A6
       Just remember she said that to me,
Bm                             D
   Oh, yes, oh-------! Don't take her love from my arms,
Bm                         Dmaj7                 Em7        A7     Dmaj7
   Oh, oh----oh, oh! Don't leave me now, for her love be - longs to me!


    Em9       Em4/A           Em9       Em4/A             Em9     Dmaj7
e|----2-----|--0---0--0--|--0----2----|--0---0--0--|--0----2----|--2--||
B|--3----3--|--0---0--0--|--0--3---3--|--0---0--0--|--0--3---3--|--2--||
G|----------|--0---0--0--|--0---------|--0---0--0--|--0---------|--2--||
D|----------|--2---2--2--|--2---------|--2---2--2--|--2---------|--0--||
A|----------|--0---0--0--|--0---------|--0---0--0--|--0---------|-----||
E|----------|------------|------------|------------|------------|-----||


***********************************************************************

Chord shapes are relative to capo position:

Em9     =  020032
Em4/A   =  x02000
Dmaj7   =  xx0222
Em      =  022000
A6      =  x02222
Bm      =  x24432
A7      =  x02020
A       =  x02220
Tap to rate this tab
# A B C D E F G H I J K L M N O P Q R S T U V W X Y Z