Guitaretab - guitar tabs
Song name
# A B C D E F G H I J K L M N O P Q R S T U V W X Y Z

Zona 7 - Dia Mejor tab

-------------------------------------------------------------------------------
			     Dia Mejor - Zona 7
-------------------------------------------------------------------------------
Tabbed by:CommanderNeon17
Email:futureguitargod@rocketmail.com
http://www.zona7web.com/

This is something i picked up from the band and its my first tab, so bear with me and 
me how it is.

[FYI i havent figured the solo yet]

Tuning:Standard

Intro:Clean & a little overdrive
2X
e|---------------------------------------------------------------------------|
B|---------------------------------------------------------------------------|
G|---9-9-9-9-x-x-x-x-5-5-5-5-x-x-x-x---------x-x-x-x-4-4-4-4-x-x-x-x---------|
D|---9-9-9-9-x-x-x-x-5-5-5-5-x-x-x-x-5-5-5-5-x-x-x-x-4-4-4-4-x-x-x-x---------|
A|---7-7-7-7-x-x-x-x-3-3-3-3-x-x-x-x-5-5-5-5-x-x-x-x-2-2-2-2-x-x-x-x---------|
E|-----------x-x-x-x---------x-x-x-x-3-3-3-3-x-x-x-x---------x-x-x-x---------|
[ Tab from: http://www.guitaretab.com/z/zona-7/115930.html ]
Verses:Clean
5X
e|---------------------------------------------------------------------------|
B|-8-8-x-8-8-x-x-5-5-x-5-5-x-x-----x-------x-3-3-x-3-3-x-x-------------------|
G|-9-9-x-9-9-x-x-5-5-x-5-5-x-x-4-4-x-4-4-x-x-4-4-x-4-4-x-x-------------------|
D|-9-9-x-9-9-x-x-5-5-x-5-5-x-x-5-5-x-5-5-x-x-4-4-x-4-4-x-x-------------------|
A|-7-7-x-7-7-x-x-3-3-x-3-3-x-x-5-5-x-5-5-x-x-2-2-x-2-2-x-x-------------------|
E|-----x-----x-x-----x-----x-x-3-3-x-3-3-x-x-----x-----x-x-------------------|
Choruses:Overdriven or distorted
2X
e|---------------------------------------------------------------------------|
B|---------------------------------------------------------------------------|
G|-9-9-x-9-9-9-9--5-5-x-5-5-5-5-----------------4-4-x-4-4-4-4----------------|
D|-9-9-x-9-9-9-9--5-5-x-5-5-5-5--5-5-x-5-5-5-5--4-4-x-4-4-4-4----------------|
A|-7-7-x-7-7-7-7--3-3-x-3-3-3-3--5-5-x-5-5-5-5--2-2-x-2-2-2-2----------------|
E|-------------------------------3-3-x-3-3-3-3-------------------------------|

Bridge:Distorted or overdriven
5X
e|---------------------------------------------------------------------------|
B|---------------------------------------------------------------------------|
G|-----4---------4--------7--------------------------------------------------|
D|-----2---------2--------7---------5----------------------------------------|
A|-----2---------2--------5---------3----------------------------------------|
E|----------------------------------3----------------------------------------|


The Order Form:
Intro
Verse
Chorus
Verse
Chorus
Verse
Bridge
Chorus and solo
Verse
Chorus
Bridge {only once}
End......

| /  slide up
| \  slide down
| h  hammer-on
| p  pull-off
| ~  vibrato
| +  harmonic
| x  Mute note
===============================================================================