Song name
# A B C D E F G H I J K L M N O P Q R S T U V W X Y Z

Zonaria - Infamy tab

-----------------------------------------------------------------------------
                             INFAMY - Zonaria
-----------------------------------------------------------------------------

Tuning: Drop A (for 6-string guitars): A E A D F# B

 |--------------------------------------------------------------------------|
 |--------------------------------------------------------------------------|
 |-------------------Pause between 0:00 and 0:38----------------------------|
 |--------------------------------------------------------------------------|
 |--------------------------------------------------------------------------|
 |--------------------------------------------------------------------------|

 |-----------------------------------------------------------------|
 |-----------------------------------------------------------------|
 |-----------------------------------------------------------------|
 |-9---999-x---9---999-x---9---999-x---5---555-5-5--4--------------|
 |-7---777-x---7---777-x---7---777-x---3---333-3-3--2--------------|
 |-----------------------------------------------------2-2-2-2-2-2-|
PM     ..          ..          ..          ..

 |-------------------------------------------------------------------|
 |-------------------------------------------------------------------|
 |-------------------------------------------------------------------|
 |-9---999-x---9---999-x---5---555-5-5-------------------------------|
 |-7---777-x---7---777-x---3---333-3-3-------------------------------|
 |--------------------------------------2-2-2-2-4-2~~-2-2--4--5-4-2--|
PM     ..          ..          ..

 |-----------------------------------------------------------|
 |-----------------------------------------------------------|
 |-----------------------------------------------------------|
 |-----------------------------------------------------------|
 |--------------------2--3-4-6-------------------------------|
 |-2-2-2-2-4-2~~-2-2------------2-2-2-2-4-2-2-2-2--4--5-4-2--|

 |------------------------------|
 |------------------------------|
 |------------------------------|
 |------------------------------|
 |--------------------2--3-4-6--|
 |-2-2-2-2-4-2-2-2-2------------|

 |-----------------------------------------------------------------|
 |-----------------------------------------------------------------|
 |-----------------------------------------------------------------|
 |-9---999-x---9---999-x---9---999-x---5---555-5-5--4--------------|
 |-7---777-x---7---777-x---7---777-x---3---333-3-3--2--------------|
 |-----------------------------------------------------2-2-2-2-2-2-|
PM     ..          ..          ..          ..

 |-------------------------------------------------------------------|
 |-------------------------------------------------------------------|
 |-------------------------------------------------------------------|
 |-9---999-x---9---999-x---5---555-5-5-------------------------------|
 |-7---777-x---7---777-x---3---333-3-3-------------------------------|
 |--------------------------------------0-2-2-2-4-2~~-2-2--4--5-4-2--|
PM     ..          ..          ..

 |-----------------------------------------------------------|
 |-----------------------------------------------------------|
 |-----------------------------------------------------------|
 |-----------------------------------------------------------|
 |--------------------2--3-4-6-------------------------------|
 |-2-2-2-2-4-2~~-2-2------------2-2-2-2-4-2~~-2-2--4--5-4-2--|

 |------------------------------|
 |------------------------------|
 |------------------------------|
 |------------------------------|
 |--------------------2--3-4-6--|
 |-2-2-2-2-4-2~~-2-2------------|

Ending #1
 |--------------------------------------------------------------------------|
 |--------------------------------------------------------------------------|
 |--------------------------------------------------------------------------|
 |-4-----x------------------------------------------------------------------|
 |-2-----x------------------------------------------------------------------|
 |--------------------------------------------------------------------------|

Ending #2 (if you have a whammy bar)
 |--5\----------------------------------------------------------------------|
 |----\---------------------------------------------------------------------|
 |-----\-lower whammy bar---------------------------------------------------|
 |------\-------------------------------------------------------------------|
 |-------\------------------------------------------------------------------|
 |--------------------------------------------------------------------------|
    +
 
************************************

| ~   vibrato
| x   mute note
| +   harmonic

************************************
Tap to rate this tab
# A B C D E F G H I J K L M N O P Q R S T U V W X Y Z