Song name
# A B C D E F G H I J K L M N O P Q R S T U V W X Y Z

Zonaria - Image Of Myself tab

-----------------------------------------------------------------------------
                             IMAGE OF MYSELF - Zonaria
-----------------------------------------------------------------------------
Tabbed by: Samee
Email: xcrunner64@yahoo.com

Tuning: B Standard (for 6-string guitars): B E A D F# B

 |--------------------------------------------------------------------------|
 |--------------------------------------------------------------------------|
 |---------------------------Pause between----------------------------------|
 |---------------------------0:00 and 0:19----------------------------------|
 |--------------------------------------------------------------------------|
 |--------------------------------------------------------------------------|

 |------------------------------------------------------------------|
 |------------------------------------------------------------------|
 |------------------------------------------------------------------|
 |-5-5-5-x----------------------------------------------------------|
 |-3-3-3-x----------------------------------------------------------|
 |------------------------------------------------------------------|

 |-----------------------------------------------------------------|
 |-----------------------------------------------------------------|
 |-----------------------------------------------------------------|
 |-----------------------------------------------------------------|
 |-0--(0)--(0)--(0)--(0)--(0)--0-0-0-x-----------------------------|
 |-2--(2)--(2)--(2)--(2)--(2)--2-2-2-x-----------------------------|

 |------------------------------------------------------------------|
 |------------------------------------------------------------------|
 |------------------------------------------------------------------|
 |-5-5-5-x----------------------------------------------------------|
 |-3-3-3-x----------------------------------------------------------|
 |------------------------------------------------------------------|

 |-----------------------------------------------------------------|
 |-----------------------------------------------------------------|
 |-----------------------------------------------------------------|
 |-----------------------------------------------------------------|
 |-0--(0)--(0)--(0)--(0)--(0)--0-0-0-x-----------------------------|
 |-2--(2)--(2)--(2)--(2)--(2)--2-2-2-x-----------------------------|

 |-----------------------------------------------------------------|
 |-----------------------------------------------------------------|
 |-----------------------------------------------------------------|
 |-5-5-5-5-5-5-5-5-5-5-5-5-5-5-5-5-5-5-5-5-5-5-5-5-5-5-5-5-5-5-5-5-|
 |-3-3-3-3-3-3-3-3-3-3-3-3-3-3-3-3-3-3-3-3-3-3-3-3-3-3-3-3-3-3-3-3-|
 |-----------------------------------------------------------------|

 |-----------------------------------------------------------------|
 |-----------------------------------------------------------------|
 |-----------------------------------------------------------------|
 |-----------------------------------------------------------------|
 |-6h7-------------6h7-------------6h7-------------6h7-------------|
 |-----0-0-0-0-6-7-----0---------------0-0-0-0-6-7-----0-----------|

 |-----------------------------------------------------------------|
 |-----------------------------------------------------------------|
 |-----------------------------------------------------------------|
 |-5-5-5-5-5-5-5-5-5-5-5-5-5-5-5-5-5-5-5-5-5-5-5-5-5-5-5-5-5-5-5-5-|
 |-3-3-3-3-3-3-3-3-3-3-3-3-3-3-3-3-3-3-3-3-3-3-3-3-3-3-3-3-3-3-3-3-|
 |-----------------------------------------------------------------|

 |-----------------------------------------------------------------|
 |-----------------------------------------------------------------|
 |-----------------------------------------------------------------|
 |-----------------------------------------------------------------|
 |-6h7-------------6h7-------------6h7-------------6h7-------------|
 |-----0-0-0-0-6-7-----0---------------0-0-0-0-6-7-----0-----------|

 |-----------------------------------------------------------------|
 |-----------------------------------------------------------------|
 |-----------------------------------------------------------------|
 |-------------------------------------------------6~~~~~~~~~~~~---|
 |-3~~~~~~~~~~~~~~~~~~~~~~~~~~~~~--6~~~~~--3-----------------------|
 |-----------------------------------------------------------------|

 |-----------------------------------------8-------7~~~~~~~~~~~~---|
 |---------------------------------5-------------------------------|
 |-----------------------------------------------------------------|
 |-4---2---4-------5~~~~~~~~~~~~~----------------------------------|
 |-----------------------------------------------------------------|
 |-----------------------------------------------------------------|

 |-----------------------------------------------------------------|
 |-----------------------------------------------------------------|
 |-----------------------------------------------------------------|
 |-------------------------------------------------6~~~~~~~~~~~~---|
 |-3~~~~~~~~~~~~~~~~~~~~~~~~~~~~~--6~~~~~--3-----------------------|
 |-----------------------------------------------------------------|

 |-----------------------------------------7b------7~~~~~~~~~~~~---|
 |---------------------------------5-------------------------------|
 |-----------------------------------------------------------------|
 |-4---2---4-------5~~~~~~~~~~~~~----------------------------------|
 |-----------------------------------------------------------------|
 |-----------------------------------------------------------------|

 |-----------------------------------------------------------------|
 |-----------------------------------------------------------------|
 |-----------------------------------------------------------------|
 |-------------------------------------------------6~~~~~~~~~~~~---|
 |-3~~~~~~~~~~~~~~~~~~~~~~~~~~~~~--6~~~~~--3-----------------------|
 |-----------------------------------------------------------------|

 |-----------------------------------------8-------7~~~~~~~~~~~~---|
 |---------------------------------5-------------------------------|
 |-----------------------------------------------------------------|
 |-4---2---4-------5~~~~~~~~~~~~~----------------------------------|
 |-----------------------------------------------------------------|
 |-----------------------------------------------------------------|

 |-----------------------------------------------------------------|
 |-----------------------------------------------------------------|
 |-----------------------------------------------------------------|
 |-------------------------------------------------6~~~~~~~~~~~~---|
 |-3~~~~~~~~~~~~~~~~~~~~~~~~~~~~~--6~~~~~--3-----------------------|
 |-----------------------------------------------------------------|

 |-----------------------------------------7b------7~~~~~~~~~~~~---|
 |---------------------------------5-------------------------------|
 |-----------------------------------------------------------------|
 |-4---2---4-------5~~~~~~~~~~~~~----------------------------------|
 |-----------------------------------------------------------------|
 |-----------------------------------------------------------------|

 |-----------------------------------------------------------------|
 |-----------------------------------------------------------------|
 |-----------------------------------------------------------------|
 |-5-5-5-5-5-5-5-5-5-5-5-5-5-5-5-5-5-5-5-5-5-5-5-5-5-5-5-5-5-5-5-5-|
 |-3-3-3-3-3-3-3-3-3-3-3-3-3-3-3-3-3-3-3-3-3-3-3-3-3-3-3-3-3-3-3-3-|
 |-----------------------------------------------------------------|

 |-----------------------------------------------------------------|
 |-----------------------------------------------------------------|
 |-----------------------------------------------------------------|
 |-----------------------------------------------------------------|
 |-6h7-------------6h7-------------6h7-------------6h7-------------|
 |-----0-0-0-0-6-7-----0-0-0-0-0-0-----0-0-0-0-6-7-----0-0-0-0-0-0-|
PM     . . . .         . . . . . .     . . . .         . . . . . .

 |-----------------------------------------------------------------|
 |-----------------------------------------------------------------|
 |-----------------------------------------------------------------|
 |-5-5-5-5-5-5-5-5-5-5-5-5-5-5-5-5-5-5-5-5-5-5-5-5-5-5-5-5-5-5-5-5-|
 |-3-3-3-3-3-3-3-3-3-3-3-3-3-3-3-3-3-3-3-3-3-3-3-3-3-3-3-3-3-3-3-3-|
 |-----------------------------------------------------------------|

 |-----------------------------------------------------------------|
 |-----------------------------------------------------------------|
 |-----------------------------------------------------------------|
 |-----------------------------------------------------------------|
 |-6h7-------------6h7-------------6h7-------------6h7-------------|
 |-----0-0-0-0-6-7-----0-0-0-0-0-0-----0-0-0-0-6-7-----0-0-0-0-0-0-|
PM     . . . .         . . . . . .     . . . .         . . . . . .

 |-----------------------------------------------------------------|
 |-----------------------------------------------------------------|
 |-----------------------------------------------------------------|
 |-------------------------------------------------6~~~~~~~~~~~~---|
 |-3~~~~~~~~~~~~~~~~~~~~~~~~~~~~~--6~~~~~--3-----------------------|
 |-----------------------------------------------------------------|

 |-----------------------------------------8-------7~~~~~~~~~~~~---|
 |---------------------------------5-------------------------------|
 |-----------------------------------------------------------------|
 |-4---2---4-------5~~~~~~~~~~~~~----------------------------------|
 |-----------------------------------------------------------------|
 |-----------------------------------------------------------------|

 |-----------------------------------------------------------------|
 |-----------------------------------------------------------------|
 |-----------------------------------------------------------------|
 |-------------------------------------------------6~~~~~~~~~~~~---|
 |-3~~~~~~~~~~~~~~~~~~~~~~~~~~~~~--6~~~~~--3-----------------------|
 |-----------------------------------------------------------------|

 |-----------------------------------------7b------7~~~~~~~~~~~~---|
 |---------------------------------5-------------------------------|
 |-----------------------------------------------------------------|
 |-4---2---4-------5~~~~~~~~~~~~~----------------------------------|
 |-----------------------------------------------------------------|
 |-----------------------------------------------------------------|

 |-----------------------------------------------------------------|
 |-----------------------------------------------------------------|
 |-----------------------------------------------------------------|
 |-5-5-5-5-5-5-5-5-5-5-5-5-5-5-5-5-5-5-5-5-5-5-5-5-5-5-5-5-5-5-5-5-|
 |-3-3-3-3-3-3-3-3-3-3-3-3-3-3-3-3-3-3-3-3-3-3-3-3-3-3-3-3-3-3-3-3-|
 |-----------------------------------------------------------------|

 |-----------------------------------------------------------------|
 |-----------------------------------------------------------------|
 |-----------------------------------------------------------------|
 |-----------------------------------------------------------------|
 |-6h7-------------6h7-------------6h7-------------6h7-------------|
 |-----0-0-0-0-6-7-----0-0-0-0-0-0-----0-0-0-0-6-7-----0-0-0-0-0-0-|
PM     . . . .         . . . . . .     . . . .         . . . . . .

 |-----------------------------------------------------------------|
 |-----------------------------------------------------------------|
 |-----------------------------------------------------------------|
 |-5-5-5-5-5-5-5-5-5-5-5-5-5-5-5-5-5-5-5-5-5-5-5-5-5-5-5-5-5-5-5-5-|
 |-3-3-3-3-3-3-3-3-3-3-3-3-3-3-3-3-3-3-3-3-3-3-3-3-3-3-3-3-3-3-3-3-|
 |-----------------------------------------------------------------|

 |-----------------------------------------------------------------|
 |-----------------------------------------------------------------|
 |-----------------------------------------------------------------|
 |-----------------------------------------------------------------|
 |-6h7-------------6h7-------------6h7-------------6h7-------------|
 |-----0-0-0-0-6-7-----0-0-0-0-0-0-----0-0-0-0-6-7-----0-0-0-0-0-0-|
PM     . . . .         . . . . . .     . . . .         . . . . . .

 |-11-10-11~~~~~~~~~--11---11p10p8---------8-11-8~~~~~~~~~--|
 |---------------------------------8------------------------|
 |----------------------------------------------------------|
 |----------------------------------------------------------|
 |----------------------------------------------------------|
 |----------------------------------------------------------|

 |-11-------15------------------------11-------15-------11p10p8-------------|
 |-------------------13~~~~~~~~~~~~~----------------------------8-----------|
 |--------------------------------------------------------------------------|
 |--------------------------------------------------------------------------|
 |--------------------------------------------------------------------------|
 |--------------------------------------------------------------------------|

 |-10---11-10-8-----------|
 |------------------------|
 |------------------------|
 |------------------------|
 |------------------------|
 |------------------------|

 |-11-10-11~~~~~~~~~--11---11p10p8---------8-11-8~~~~~~~~~--|
 |---------------------------------8------------------------|
 |----------------------------------------------------------|
 |----------------------------------------------------------|
 |----------------------------------------------------------|
 |----------------------------------------------------------|

 |-11-------15------------------------11-------15-------11p10p8-------------|
 |-------------------13~~~~~~~~~~~~~----------------------------8-----------|
 |--------------------------------------------------------------------------|
 |--------------------------------------------------------------------------|
 |--------------------------------------------------------------------------|
 |--------------------------------------------------------------------------|

 |-10---11-10-8---(8)---(8)---(8)---(8)---(8)---(8)---(8)-|
 |--------------------------------------------------------|
 |--------------------------------------------------------|
 |--------------------------------------------------------|
 |--------------------------------------------------------|
 |--------------------------------------------------------|

 |--------------------------------------------------------------------------|
 |--------------------------------------------------------------------------|
 |---------------------------Pause between----------------------------------|
 |---------------------------2:55 and 3:11----------------------------------|
 |--------------------------------------------------------------------------|
 |--------------------------------------------------------------------------|

 |------------------------------------------------------------------|
 |------------------------------------------------------------------|
 |-1717171717171717171717171717171717171717171717171717171717171717-|
 |------------------------------------------------------------------|
 |------------------------------------------------------------------|
 |------------------------------------------------------------------|

 |------------------------------------------------------------------|
 |------------------------------------------------------------------|
 |-1616161616161616161616161616161617171717171717171717171717171717-|
 |------------------------------------------------------------------|
 |------------------------------------------------------------------|
 |------------------------------------------------------------------|

 |------------------------------------------------------------------|
 |------------------------------------------------------------------|
 |-2020202020202020202020202020202020202020202020202020202020202020-|
 |------------------------------------------------------------------|
 |------------------------------------------------------------------|
 |------------------------------------------------------------------|

 |------------------------------------------------------------------|
 |------------------------------------------------------------------|
 |-1919191919191919191919191919191920202020202020202020202020202020-|
 |------------------------------------------------------------------|
 |------------------------------------------------------------------|
 |------------------------------------------------------------------|

 |------------------------------------------------------------------|
 |------------------------------------------------------------------|
 |-1717171717171717171717171717171717171717171717171717171717171717-|
 |------------------------------------------------------------------|
 |------------------------------------------------------------------|
 |------------------------------------------------------------------|

 |------------------------------------------------------------------|
 |------------------------------------------------------------------|
 |-1616161616161616161616161616161617171717171717171717171717171717-|
 |------------------------------------------------------------------|
 |------------------------------------------------------------------|
 |------------------------------------------------------------------|

 |------------------------------------------------------------------|
 |------------------------------------------------------------------|
 |-2020202020202020202020202020202020202020202020202020202020202020-|
 |------------------------------------------------------------------|
 |------------------------------------------------------------------|
 |------------------------------------------------------------------|

 |------------------------------------------------------------------|
 |------------------------------------------------------------------|
 |-1919191919191919191919191919191920202020202020202020202020202020-|
 |------------------------------------------------------------------|
 |------------------------------------------------------------------|
 |------------------------------------------------------------------|

 |-----------------------------------------------------------------|
 |-----------------------------------------------------------------|
 |-20~~~~~~~~~~~~~~~~~~~~~~~~~~~~~---------------------------------|
 |-----------------------------------------------------------------|
 |---------------------------------5---5-5-5-5-5---6---------------|
 |---------------------------------3---3-3-3-3-3---4---------------|
PM                                     . . .

 |-----------------------------------------------------------------|
 |-----------------------------------------------------------------|
 |-----------------------------------------------------------------|
 |-5-5-5-5-5-5-5-5-5-5-5-5-5-5-5-5-0h5~~~~-3---0-------------------|
 |-3-3-3-3-3-3-3-3-3-3-3-3-3-3-3-3-----------------3-2-3-----------|
 |-----------------------------------------------------------------|
PM . . . . . . . . . . . . . . . .

 |-----------------------------------------------------------------|
 |-----------------------------------------------------------------|
 |-----------------------------------------------------------------|
 |-----------------------------------------------------------------|
 |-6-----------6-6-6---6-6-6---6-6-5---5-5-5-5-5---6---------------|
 |-4-----------4-4-4---4-4-4---4-4-3---3-3-3-3-3---4---------------|
PM             . .     . .     . .     . . .

 |-----------------------------------------------------------------|
 |-----------------------------------------------------------------|
 |-----------------------------------------------------------------|
 |-5-5-5-5-5-5-5-5-5-5-5-5-5-5-5-5-0h5~~~~-3---0-------------------|
 |-3-3-3-3-3-3-3-3-3-3-3-3-3-3-3-3-----------------3-2-3-----------|
 |-----------------------------------------------------------------|
PM . . . . . . . . . . . . . . . .

 |-23-22-23~~~--20---23~~~~~~~~~~~~~--23-22-23~~~--20---23-----pb24-------|
 |------------------------------------------------------------------------|
 |------------------------------------------------------------------------|
 |------------------------------------------------------------------------|
 |------------------------------------------------------------------------|
 |------------------------------------------------------------------------|

 |-22-20-22~~~--18---22~~~~~~~~~~~~~--22-20-22~~~--18---22~~~~~~~~~~~~~~~~--|
 |--------------------------------------------------------------------------|
 |--------------------------------------------------------------------------|
 |--------------------------------------------------------------------------|
 |--------------------------------------------------------------------------|
 |--------------------------------------------------------------------------|

 |-23-22-23~~~--20---23~~~~~~~~~~~~~--23-22-23~~~--20---23-----pb24-------|
 |------------------------------------------------------------------------|
 |------------------------------------------------------------------------|
 |------------------------------------------------------------------------|
 |------------------------------------------------------------------------|
 |------------------------------------------------------------------------|

 |-22-20-22~~~--18---22~~~~~~~~~~~~~--22-20-22~~~--18---22~~~~~~~~~~~~~~~~--|
 |--------------------------------------------------------------------------|
 |--------------------------------------------------------------------------|
 |--------------------------------------------------------------------------|
 |--------------------------------------------------------------------------|
 |--------------------------------------------------------------------------|

 |-20~~~~~~~~~~~~~~~~~~~~~~~~~~~~~~~~~~~~(20)\-----|
 |-------------------------------------------------|
 |-------------------------------------------------|
 |-------------------------------------------------|
 |-------------------------------------------------|
 |-------------------------------------------------|


************************************

| \   slide down
| h   hammer-on
| p   pull-off
| ~   vibrato
| x   mute note
| (#) let ring
| b   Bend
| pb  Pre-bend

************************************
Tap to rate this tab
 
# A B C D E F G H I J K L M N O P Q R S T U V W X Y Z