Song name
# A B C D E F G H I J K L M N O P Q R S T U V W X Y Z

Zonaria - Image Of Myself tab

-----------------------------------------------------------------------------
                             IMAGE OF MYSELF - Zonaria
-----------------------------------------------------------------------------
Tabbed by: Samee
Email: xcrunner64@yahoo.com

Tuning: B Standard (for 6-string guitars): B E A D F# B

 |--------------------------------------------------------------------------|
 |--------------------------------------------------------------------------|
 |---------------------------Pause between----------------------------------|
 |---------------------------0:00 and 0:19----------------------------------|
 |--------------------------------------------------------------------------|
 |--------------------------------------------------------------------------|

 |------------------------------------------------------------------|
 |------------------------------------------------------------------|
 |------------------------------------------------------------------|
 |-5-5-5-x----------------------------------------------------------|
 |-3-3-3-x----------------------------------------------------------|
 |------------------------------------------------------------------|

 |-----------------------------------------------------------------|
 |-----------------------------------------------------------------|
 |-----------------------------------------------------------------|
 |-----------------------------------------------------------------|
 |-0--(0)--(0)--(0)--(0)--(0)--0-0-0-x-----------------------------|
 |-2--(2)--(2)--(2)--(2)--(2)--2-2-2-x-----------------------------|

 |------------------------------------------------------------------|
 |------------------------------------------------------------------|
 |------------------------------------------------------------------|
 |-5-5-5-x----------------------------------------------------------|
 |-3-3-3-x----------------------------------------------------------|
 |------------------------------------------------------------------|

 |-----------------------------------------------------------------|
 |-----------------------------------------------------------------|
 |-----------------------------------------------------------------|
 |-----------------------------------------------------------------|
 |-0--(0)--(0)--(0)--(0)--(0)--0-0-0-x-----------------------------|
 |-2--(2)--(2)--(2)--(2)--(2)--2-2-2-x-----------------------------|

 |-----------------------------------------------------------------|
 |-----------------------------------------------------------------|
 |-----------------------------------------------------------------|
 |-5-5-5-5-5-5-5-5-5-5-5-5-5-5-5-5-5-5-5-5-5-5-5-5-5-5-5-5-5-5-5-5-|
 |-3-3-3-3-3-3-3-3-3-3-3-3-3-3-3-3-3-3-3-3-3-3-3-3-3-3-3-3-3-3-3-3-|
 |-----------------------------------------------------------------|

 |-----------------------------------------------------------------|
 |-----------------------------------------------------------------|
 |-----------------------------------------------------------------|
 |-----------------------------------------------------------------|
 |-6h7-------------6h7-------------6h7-------------6h7-------------|
 |-----0-0-0-0-6-7-----0---------------0-0-0-0-6-7-----0-----------|

 |-----------------------------------------------------------------|
 |-----------------------------------------------------------------|
 |-----------------------------------------------------------------|
 |-5-5-5-5-5-5-5-5-5-5-5-5-5-5-5-5-5-5-5-5-5-5-5-5-5-5-5-5-5-5-5-5-|
 |-3-3-3-3-3-3-3-3-3-3-3-3-3-3-3-3-3-3-3-3-3-3-3-3-3-3-3-3-3-3-3-3-|
 |-----------------------------------------------------------------|

 |-----------------------------------------------------------------|
 |-----------------------------------------------------------------|
 |-----------------------------------------------------------------|
 |-----------------------------------------------------------------|
 |-6h7-------------6h7-------------6h7-------------6h7-------------|
 |-----0-0-0-0-6-7-----0---------------0-0-0-0-6-7-----0-----------|

 |-----------------------------------------------------------------|
 |-----------------------------------------------------------------|
 |-----------------------------------------------------------------|
 |-------------------------------------------------6---------------|
 |-3-----------2---3-------5-------6-------3-----------------------|
 |-----------------------------------------------------------------|

 |-----------------------------------------------------------------|
 |-----------------------------------------------------------------|
 |-----------------------------------------------------------------|
 |-----------------5---------------7-------------------------------|
 |-------------------------------------------------7---------------|
 |-7---5---7-------------------------------------------------------|

 |-----------------------------------------------------------------|
 |-----------------------------------------------------------------|
 |-----------------------------------------------------------------|
 |-------------------------------------------------6---------------|
 |-3-----------2---3-------5-------6-------3-----------------------|
 |-----------------------------------------------------------------|

 |-----------------------------------------------------------------|
 |-----------------------------------------------------------------|
 |-----------------------------------------------------------------|
 |-----------------5---------------7-------------------------------|
 |-------------------------------------------------7---------------|
 |-7---5---7-------------------------------------------------------|

 |-----------------------------------------------------------------|
 |-----------------------------------------------------------------|
 |-----------------------------------------------------------------|
 |-------------------------------------------------6---------------|
 |-3-----------2---3-------5-------6-------3-----------------------|
 |-----------------------------------------------------------------|

 |-----------------------------------------------------------------|
 |-----------------------------------------------------------------|
 |-----------------------------------------------------------------|
 |-----------------5---------------7-------------------------------|
 |-------------------------------------------------7---------------|
 |-7---5---7-------------------------------------------------------|

 |-----------------------------------------------------------------|
 |-----------------------------------------------------------------|
 |-----------------------------------------------------------------|
 |-------------------------------------------------6---------------|
 |-3-----------2---3-------5-------6-------3-----------------------|
 |-----------------------------------------------------------------|

 |-----------------------------------------------------------------|
 |-----------------------------------------------------------------|
 |-----------------------------------------------------------------|
 |-----------------5---------------7-------------------------------|
 |-------------------------------------------------7---------------|
 |-7---5---7-------------------------------------------------------|

 |-----------------------------------------------------------------|
 |-----------------------------------------------------------------|
 |-----------------------------------------------------------------|
 |-5-5-5-5-5-5-5-5-5-5-5-5-5-5-5-5-5-5-5-5-5-5-5-5-5-5-5-5-5-5-5-5-|
 |-3-3-3-3-3-3-3-3-3-3-3-3-3-3-3-3-3-3-3-3-3-3-3-3-3-3-3-3-3-3-3-3-|
 |-----------------------------------------------------------------|

 |-----------------------------------------------------------------|
 |-----------------------------------------------------------------|
 |-----------------------------------------------------------------|
 |-----------------------------------------------------------------|
 |-6h7-------------6h7-------------6h7-------------6h7-------------|
 |-----0-0-0-0-6-7-----0-0-0-0-0-0-----0-0-0-0-6-7-----0-0-0-0-0-0-|
PM     . . . .         . . . . . .     . . . .         . . . . . .

 |-----------------------------------------------------------------|
 |-----------------------------------------------------------------|
 |-----------------------------------------------------------------|
 |-5-5-5-5-5-5-5-5-5-5-5-5-5-5-5-5-5-5-5-5-5-5-5-5-5-5-5-5-5-5-5-5-|
 |-3-3-3-3-3-3-3-3-3-3-3-3-3-3-3-3-3-3-3-3-3-3-3-3-3-3-3-3-3-3-3-3-|
 |-----------------------------------------------------------------|

 |-----------------------------------------------------------------|
 |-----------------------------------------------------------------|
 |-----------------------------------------------------------------|
 |-----------------------------------------------------------------|
 |-6h7-------------6h7-------------6h7-------------6h7-------------|
 |-----0-0-0-0-6-7-----0-0-0-0-0-0-----0-0-0-0-6-7-----0-0-0-0-0-0-|
PM     . . . .         . . . . . .     . . . .         . . . . . .

 |-----------------------------------------------------------------|
 |-----------------------------------------------------------------|
 |-----------------------------------------------------------------|
 |-------------------------------------------------6---------------|
 |-3-----------2---3-------5-------6-------3-----------------------|
 |-----------------------------------------------------------------|

 |-----------------------------------------------------------------|
 |-----------------------------------------------------------------|
 |-----------------------------------------------------------------|
 |-----------------5---------------7-------------------------------|
 |-------------------------------------------------7---------------|
 |-7---5---7-------------------------------------------------------|

 |-----------------------------------------------------------------|
 |-----------------------------------------------------------------|
 |-----------------------------------------------------------------|
 |-------------------------------------------------6---------------|
 |-3-----------2---3-------5-------6-------3-----------------------|
 |-----------------------------------------------------------------|

 |-----------------------------------------------------------------|
 |-----------------------------------------------------------------|
 |-----------------------------------------------------------------|
 |-----------------5---------------7-------------------------------|
 |-------------------------------------------------7---------------|
 |-7---5---7-------------------------------------------------------|

 |-----------------------------------------------------------------|
 |-----------------------------------------------------------------|
 |-----------------------------------------------------------------|
 |-5-5-5-5-5-5-5-5-5-5-5-5-5-5-5-5-5-5-5-5-5-5-5-5-5-5-5-5-5-5-5-5-|
 |-3-3-3-3-3-3-3-3-3-3-3-3-3-3-3-3-3-3-3-3-3-3-3-3-3-3-3-3-3-3-3-3-|
 |-----------------------------------------------------------------|

 |-----------------------------------------------------------------|
 |-----------------------------------------------------------------|
 |-----------------------------------------------------------------|
 |-----------------------------------------------------------------|
 |-6h7-------------6h7-------------6h7-------------6h7-------------|
 |-----0-0-0-0-6-7-----0-0-0-0-0-0-----0-0-0-0-6-7-----0-0-0-0-0-0-|
PM     . . . .         . . . . . .     . . . .         . . . . . .

 |-----------------------------------------------------------------|
 |-----------------------------------------------------------------|
 |-----------------------------------------------------------------|
 |-5-5-5-5-5-5-5-5-5-5-5-5-5-5-5-5-5-5-5-5-5-5-5-5-5-5-5-5-5-5-5-5-|
 |-3-3-3-3-3-3-3-3-3-3-3-3-3-3-3-3-3-3-3-3-3-3-3-3-3-3-3-3-3-3-3-3-|
 |-----------------------------------------------------------------|

 |-----------------------------------------------------------------|
 |-----------------------------------------------------------------|
 |-----------------------------------------------------------------|
 |-----------------------------------------------------------------|
 |-6h7-------------6h7-------------6h7-------------6h7-------------|
 |-----0-0-0-0-6-7-----0-0-0-0-0-0-----0-0-0-0-6-7-----0-0-0-0-0-0-|
PM     . . . .         . . . . . .     . . . .         . . . . . .

 |-----------------------------------------------------------------|
 |-----------------------------------------------------------------|
 |-----------------------------------------------------------------|
 |-8---------------8-----------8---8---------------5---------------|
 |-6---------------6-----------6---6-------------------------------|
 |-----------------------------------------------------------------|
PM                             .

 |-----------------------------------------------------------------|
 |-----------------------------------------------------------------|
 |-----------------------------------------------------------------|
 |-5---------------5-----------------------------------------------|
 |-3---------------3---------------5---5---5---5-------------------|
 |---------------------------------3---3---3---3---4-3-1-----------|
PM                                 .   .   .   .

 |-----------------------------------------------------------------|
 |-----------------------------------------------------------------|
 |-----------------------------------------------------------------|
 |-8---------------8-----------8---8---------------5---------------|
 |-6---------------6-----------6---6-------------------------------|
 |-----------------------------------------------------------------|
PM                             .

 |-----------------------------------------------------------------|
 |-----------------------------------------------------------------|
 |-----------------------------------------------------------------|
 |-5---------------5-----------------------------------------------|
 |-3---------------3---------------5---5---5---5-------------------|
 |---------------------------------3---3---3---3---4-3-1-----------|
PM                                 .   .   .   .

 |--------------------------------------------------------------------------|
 |--------------------------------------------------------------------------|
 |---------------------------Pause between----------------------------------|
 |---------------------------2:52 and 3:11----------------------------------|
 |--------------------------------------------------------------------------|
 |--------------------------------------------------------------------------|

 |-----------------------------------------------------------------|
 |-----------------------------------------------------------------|
 |-----------------------------------------------------------------|
 |-6--(6)---(6)---(6)---(6)---(6)--5---(5)---(5)---6---(6)---(6)---|
 |-6--(6)---(6)---(6)---(6)---(6)--5---(5)---(5)---6---(6)---(6)---|
 |-4--(4)---(4)---(4)---(4)---(4)--3---(3)---(3)---4---(4)---(4)---|

 |-----------------------------------------------------------------|
 |-----------------------------------------------------------------|
 |-5--(5)---(5)---(5)---(5)---(5)------------------5---(5)---(5)---|
 |-5--(5)---(5)---(5)---(5)---(5)--5---(5)---(5)---5---(5)---(5)---|
 |-3--(3)---(3)---(3)---(3)---(3)--5---(5)---(5)---3---(3)---(3)---|
 |---------------------------------3---(3)---(3)-------------------|

 |-----------------------------------------------------------------|
 |-----------------------------------------------------------------|
 |-----------------------------------------------------------------|
 |-6--(6)---(6)---(6)---(6)---(6)--5---(5)---(5)---6---(6)---(6)---|
 |-6--(6)---(6)---(6)---(6)---(6)--5---(5)---(5)---6---(6)---(6)---|
 |-4--(4)---(4)---(4)---(4)---(4)--3---(3)---(3)---4---(4)---(4)---|

 |-----------------------------------------------------------------|
 |-----------------------------------------------------------------|
 |-5--(5)---(5)---(5)---(5)---(5)------------------5---(5)---(5)---|
 |-5--(5)---(5)---(5)---(5)---(5)--5---(5)---(5)---5---(5)---(5)---|
 |-3--(3)---(3)---(3)---(3)---(3)--5---(5)---(5)---3---(3)---(3)---|
 |---------------------------------3---(3)---(3)-------------------|

 |-----------------------------------------------------------------|
 |-----------------------------------------------------------------|
 |-----------------------------------------------------------------|
 |-----------------------------------------------------------------|
 |-6-----------6-6-6---6-6-6---6-6-5---5-5-5-5-5---6---------------|
 |-4-----------4-4-4---4-4-4---4-4-3---3-3-3-3-3---4---------------|
PM             . .     . .     . .     . . .

 |-----------------------------------------------------------------|
 |-----------------------------------------------------------------|
 |-----------------------------------------------------------------|
 |-5-5-5-5-5-5-5-5-5-5-5-5-5-5-5-5-0h5~~~~-3---0-------------------|
 |-3-3-3-3-3-3-3-3-3-3-3-3-3-3-3-3-----------------3-2-3-----------|
 |-----------------------------------------------------------------|
PM . . . . . . . . . . . . . . . .

 |-----------------------------------------------------------------|
 |-----------------------------------------------------------------|
 |-----------------------------------------------------------------|
 |-----------------------------------------------------------------|
 |-6-----------6-6-6---6-6-6---6-6-5---5-5-5-5-5---6---------------|
 |-4-----------4-4-4---4-4-4---4-4-3---3-3-3-3-3---4---------------|
PM             . .     . .     . .     . . .

 |-----------------------------------------------------------------|
 |-----------------------------------------------------------------|
 |-----------------------------------------------------------------|
 |-5-5-5-5-5-5-5-5-5-5-5-5-5-5-5-5-0h5~~~~-3---0-------------------|
 |-3-3-3-3-3-3-3-3-3-3-3-3-3-3-3-3-----------------3-2-3-----------|
 |-----------------------------------------------------------------|
PM . . . . . . . . . . . . . . . .

 |-----------------------------------------------------------------|
 |-----------------------------------------------------------------|
 |-----------------------------------------------------------------|
 |-8-8-8-8-8-8-8-8-8-8-8-8-8-8-8-8-8-8-8-8-8-8-8-8-8-8-8-8-8-8-8-8-|
 |-6-6-6-6-6-6-6-6-6-6-6-6-6-6-6-6-6-6-6-6-6-6-6-6-6-6-6-6-6-6-6-6-|
 |-----------------------------------------------------------------|

 |-----------------------------------------------------------------|
 |-----------------------------------------------------------------|
 |-----------------------------------------------------------------|
 |-----------------------------------------------------------------|
 |-5-5-5-5-5-5-5-5-5-5-5-5-5-5-5-5-5-5-5-5-5-5-5-5-5-5-5-5-5-5-5-5-|
 |-3-3-3-3-3-3-3-3-3-3-3-3-3-3-3-3-3-3-3-3-3-3-3-3-3-3-3-3-3-3-3-3-|

 |-----------------------------------------------------------------|
 |-----------------------------------------------------------------|
 |-----------------------------------------------------------------|
 |-8-8-8-8-8-8-8-8-8-8-8-8-8-8-8-8-8-8-8-8-8-8-8-8-8-8-8-8-8-8-8-8-|
 |-6-6-6-6-6-6-6-6-6-6-6-6-6-6-6-6-6-6-6-6-6-6-6-6-6-6-6-6-6-6-6-6-|
 |-----------------------------------------------------------------|

 |-----------------------------------------------------------------|
 |-----------------------------------------------------------------|
 |-----------------------------------------------------------------|
 |-----------------------------------------------------------------|
 |-5-5-5-5-5-5-5-5-5-5-5-5-5-5-5-5-5-5-5-5-5-5-5-5-5-5-5-5-5-5-5-5-|
 |-3-3-3-3-3-3-3-3-3-3-3-3-3-3-3-3-3-3-3-3-3-3-3-3-3-3-3-3-3-3-3-3-|

 |-----------------------------------------------------------------|
 |-----------------------------------------------------------------|
 |-----------------------------------------------------------------|
 |-5---(5)---(5)---(5)---(5)---(5)---(5)---(5)---(5)---(5)---(5)---|
 |-3---(3)---(3)---(3)---(3)---(3)---(3)---(3)---(3)---(3)---(3)---|
 |-----------------------------------------------------------------|

 |-----------------------------------------------------------------|
 |-----------------------------------------------------------------|
 |-----------------------------------------------------------------|
 |-(5)---(5)---(5)---(5)---(5)---(5)---(5)---(5)---(5)---(5)---(5)-|
 |-(3)---(3)---(3)---(3)---(3)---(3)---(3)---(3)---(3)---(3)---(3)-|
 |-----------------------------------------------------------------|


************************************

| h   hammer-on
| ~   vibrato
| x   mute note
| (#) let ring

************************************
Tap to rate this tab
# A B C D E F G H I J K L M N O P Q R S T U V W X Y Z