Song name
# A B C D E F G H I J K L M N O P Q R S T U V W X Y Z

Zooey Deschanel - Hey Girl chords

Highlighted       Show chord diagrams
-------------------------------------------------------------------------------
                             HEY GIRL - Zooey Deschanel
-------------------------------------------------------------------------------
Tabbed by: Peksutin
Email: jp.kousa[at]gmail.com

Tuning: Regular

This is how it sounds to me, Im not a 100% sure.
If you find something to correct, please do let me know.
-------------------------------------------------------------------------------


F   Fm



C                      F             G
Don't let the sunshine fall from the sky

C                      D           G
Just find the sunshine in your own eyes

F        Fm           C
You're a lollipop, no second prize

F        Fm                G7
An apple somewhere, in somebody's eyes



C   Am   F        G   
Hey girl, whatcha doing?

C   Am   F          G
Hey girl, where you going?

C              C7
Shot in the arm, a twinkly eye

F                         Fm
She could have fell, fell outta the sky

C                         D          
She could have fell right out of the sky

F
Who's that girl? (Who's that girl?)

Fm
Who's that girl? (Who's that girl?)



C                       F          G
Don't let the moonshine cry up the night

C                     D           G
Set from your shadow, and make it bright

F        Fm           C
You're a lollipop, no second prize

F        Fm                G7
An apple somewhere, in somebody's eyes



C   Am   F        G   
Hey girl, whatcha doing?

C   Am   F          G
Hey girl, where you going?

C            C7
You get down, and make a frown

F                       Fm
She's gonna turn, turn, turn it around

C                       D        
She's gonna turn, turn, turn it around

F
Who's that girl? (Who's that girl?)

Fm
Who's that girl? (Who's that girl?)



SOLO:

e|--------12-13-12----13--------------------12h13p12h13p12-------10-12---------|
B|-----13----------13----13--------------13----------------13-10-------13-12---|
G|12-9----------------------13-12---12-9---------------------------------------|
D|-----------------------------------------------------------------------------|
A|-----------------------------------------------------------------------------|
E|-----------------------------------------------------------------------------|

e|---------10-10h11-10-------11h12p11h12----------9h10p9h10----------9h10p9h10-|
B|10-12-13---------------------------------------------------------------------|
G|---------------------13-12-------------12-12-11-----------12-11-10-----------|
D|-----------------------------------------------------------------------------|
A|-----------------------------------------------------------------------------|
E|-----------------------------------------------------------------------------|



C   Am   F        G   
Hey girl, whatcha doing?

C   Am   F          G
Hey girl, where you going?

C            C7
You get down, and make a frown

F                       Fm
She's gonna turn, turn, turn it around

C                       D        
She's gonna turn, turn, turn it around

F
Who's that girl? (Who's that girl?)

Fm
Who's that girl? (Who's that girl?)

C
It's Jess!

Tap to rate this tab
# A B C D E F G H I J K L M N O P Q R S T U V W X Y Z