Song name
# A B C D E F G H I J K L M N O P Q R S T U V W X Y Z

Zooey Deschanel - What Are You Doing New Years Eve tab

Song: What Are You Doing New Years Eve?(Cover)
Performed by Zooey Deschanel & Joseph Gordon-Levitt
Standard tuning: EADGBe

tabbed from: http://www.youtube.com/watch?v=aSq1cez_flQ

I didn't include the strumming pattern as it is kind of tedious to read as well as 
write. So instead I've provided the link itself above!
Might need a little bit of revision for some chords(because JGL flips from _major to 
_minor to _add9 when he feel like it) but this is pretty much it!

Intro           |Verses
|-5-----5--7----|-5------5-5--5-5---5-----7---(5---5-7)--|
|-5--7--6--9----|-5--3---5-5--7-6---5-----9---(5-7-6-9)--|
|-6--5--7--7----|-6--5---6-6--6-7---6-4-9-7---(6-5-7-7)--|
|-7--7--7--9----|-7--4---7-5--7-7---7-3-8-9---(7-7-7-9)--|
|-7--6--5--7----|-7--5---7-7--5-5---7-4-9-7---(7-6-5-7)--|
|-5-------------|-5------5-5--------5-2-7-----(5------)--|
NOTE:For the verses, play it through to the end of this bar, then replay the verse again 
but skip from the bit in the brackets to the bridge progression!

Progression to bridge...
|-5-----|
|-5-----|
|-6--6--|
|-7--5--|
|-7--6--|
|-5--4--|

Bridge
|-4--2--5----4--7--5----4--7--7--|
|-5--4--5----5--9--7----5--7--9--|
|-6--3--5----6--8--5----6--9--7--|
|-6--4--7----6--9--7----6--8--9--|
|-4--2--7----4--7--5----4--9--7--|
|-------5---------------------7--|
NOTE:Go back to the verse for one more run through with the bit in the brackets! But 
once you finish the bar, replay the bit in the brackets again, but much slower...


Happy new year! (even though its the middle of November) :)
Tap to rate this tab
 
# A B C D E F G H I J K L M N O P Q R S T U V W X Y Z