Song name
# A B C D E F G H I J K L M N O P Q R S T U V W X Y Z

Zoopark - Proschay Detka tab

This is played at the beginning and between verses:


 A (2 times)    D       Dm      A       F#
E|---------------2-0-|-2-2-2-2-2-2-1-1-1-1-1-1-|
B|-----0-1-2---------|-------------------------|
G|-2-2-------2-2-----|-------------------------|
D|-------------------|-------------------------|
A|-------------------|-------------------------|
E|-------------------|-------------------------|

 Hm
E|-----------------|---------------|
B|-----0-1-2-------|---------------|
G|-2-2-------------|---------------|
D|-----------4-4-4-|-4-6-4-7-6-4-2-|
A|-----------------|---------------|
E|-----------------|---------------|

 E       A       Esus - E
E|---------------------|-----------------|-------|
B|---------------------|-----------------|-------|
G|---------------------|-----------------|-------|
D|---2-4-6-4-2---------|---------2-2-4-2-|-2-2-2-|
A|-------------4-0-0-2-|-0-0-4-4---------|-4-4-2-|
E|---------------------|-----------------|-0-0-0-|
 
Tap to rate this tab
 
# A B C D E F G H I J K L M N O P Q R S T U V W X Y Z