Song name
# A B C D E F G H I J K L M N O P Q R S T U V W X Y Z

Zornik - Once Again tab

Tabbed by : Gitarist 69 
Artist : Zornik 
Song : Once Again

This is the heavy part of the song use lots of distortion
Normal tuning 

|-------------------------------------------------------------------|- 
|-------------------------------------------------------------------| -
|-------------------------------------------------------------------|   4x
|-999/11-11/12-12-0-0-5-5-5-5-5\4-4---------------------------------|
|-999/11-11/12-12-0-0-5-5-5-5-5\4-4---------------------------------| -
|-777/-9--9/10-10-0-0-3-3-3-3-3\2-2---------------------------------|-

                           LAST TIME PLAY !!

|-------------------------------------------------------------------|
|-------------------------------------------------------------------|
|-------------------------------------------------------------------|
|-999/11-11/12-12-0-0-5-5-5-5-5\4-4---------------------------------|
|-999/11-11/12-12-0-0-5-5-5-5-5\4-4---------------------------------|
|-777/-9--9/10-10-0-0-3-3-3-3-3\2-2---------------------------------|
                        x x x x x x = P.M

Think this tab is correct post a comment if you think its different!
Tap to rate this tab
# A B C D E F G H I J K L M N O P Q R S T U V W X Y Z