Guitaretab - guitar tabs
Song name
# A B C D E F G H I J K L M N O P Q R S T U V W X Y Z
Home / Z / Zornik / Goodbye tab

Zornik - Goodbye tab

Zornik - Goodbye


Intro/Verse: clean (acoustic or acoustic effect)
[ Tab from: http://www.guitaretab.com/z/zornik/137348.html ]
e|------------------------------------------------------------------------------|
B|------------------------------------------------------------------------------|
G|------------------------------------------------------------------------------|
D|-0-0-10-0-10^12---0-0-8-0-8-0-8^10---0-0-5-0-5^7---0-0-3-3-3-/-10-10-10-------|
A|-0-0-10-0-10^12---0-0-8-0-8-0-8^10---0-0-5-0-5^7---0-0-3-3-3-/-10-10-10-------|
D|-0-0-10-0-10^12---0-0-8-0-8-0-8^10---0-0-5-0-5^7---0-0-3-3-3-/-10-10-10-------|

Repeat with heavy distortion

e|------------------------------------------------------------------------------|
B|------------------------------------------------------------------------------|
G|------------------------------------------------------------------------------|
D|-0-0-10-0-10^12---0-0-8-0-8-0-8^10---0-0-5-0-5^7---0-0-3-3-3-/-10-10-10-------|
A|-0-0-10-0-10^12---0-0-8-0-8-0-8^10---0-0-5-0-5^7---0-0-3-3-3-/-10-10-10-------|
D|-0-0-10-0-10^12---0-0-8-0-8-0-8^10---0-0-5-0-5^7---0-0-3-3-3-/-10-10-10-------|
Related for Goodbye tab
×
Goodbye