Song name
# A B C D E F G H I J K L M N O P Q R S T U V W X Y Z

Zornik - Hatelike tab

this is my favorite song of zornik and its amazing how easy this is to play
capo on the 3th fret
standard tuning
----------------------------------------------------------------------------
verse:
 
    Em
||------------------------------------------------|
||------------------0--------0--------0--------0--|
||*--------------0--------0--------0--------0-----|
||*--------2/-4--------2--------0-----------------|
||------2--------------------------------2--------|
||---0--------------------------------------------|

 C                   Cadd9       C             
----------------------------------------||
------------1-----------------3--1--0---||
---------0-----------------0-----------*||
-----0h2----------2-----0--------------*||repeat this a few times
--3------------3-----2------------------||
----------------------------------------||

then:

||------------------------------------------------|
||------------------0--------0--------0--------0--|
||*--------------0--------0--------0--------0-----|
||*--------2/-4--------5--------7--------9--------|
||------2-----------------------------------------|
||---0--------------------------------------------|


                                          
----------------------------------------||
------------1-----------------3--1--0---||
---------0-----------------0-----------*||
-----0h2----------2-----0--------------*||
--3------------3-----2------------------||
----------------------------------------||

-----------------------------------------------------------------------------
chorus:

|---------------------------------------|
|---------1--------1--------1--------3--|
|*-----0--------0--------0--------0-----|
|*--------------------------------------|
|---3--------3--------3--------5--------|
|---------------------------------------|


                                                                                
---------------------------------------||--------------------------------------|
--------3--------3--------3--------0---||--------5--------5--------5--------7--|
-----0--------0--------0--------0-----*||-----0--------0--------0--------0-----|
--------------------------------------*||--------------------------------------|
---------------------------------------||--3--------3--------3--------5--------|
--3--------3--------3--------2---------||--------------------------------------|


                                            
--------------------------------------|----|
--------3--------3--------3--------3--|----|
-----0--------0--------0--------0-----|----|
--------------------------------------|----|
--------------------------------------|----|
--3--------3--------3--------2--------|----|
Tap to rate this tab
# A B C D E F G H I J K L M N O P Q R S T U V W X Y Z