Song name
# A B C D E F G H I J K L M N O P Q R S T U V W X Y Z

Zoster - Na Kamenu tab

uvod:
E--------------------------------------------------------|
H-----------------11-------------------------------------|
G----12---------12--12---------12-9----------------------|
D--12--12-------------------12---------(7-9-11-12)-------|
A--------------------------------------------------------|
E--------------------------------------------------------|


Cijela pjesma je iz : G-D-C


G          D         C
Zasto si krenuo losim putem,ow ow ow owoowoowoo
G        D         C
kada si mogao autoputem,
pa ti si brate kao biciklo,
dje sam te prislonio,
tu cu te i naci,
kako sjedis sam,
ja znam,ja znam,
zasto si sam,
ja znam,ja znam
je-je-je

ref:
G         D               C
Nak-nak-na kamenu sjedim sam,oj-oj-o-joj-----------.. x4
Nak-nak- na kamenu sjedim sa-a-am,a-a-am-a-a-am..--..

E-------------------------------------------------------------|
H-------------------------------------------------------------|
G--12-12-12-11-11---11-12-11-9-11-9-9-------------------------|
D--------------------------------------12-12-12-12-10-9-------|
A-------------------------------------------------------10----|
E-------------------------------------------------------------|

Sjedio sam kao Bik Koji Sjedi,
sjedio sam dok nisam posijedio,
ispod stubova koji su mi pravili hlad,
shvatio sam da vise nisam mlad,je-je-je-je...

ref:
Nak-nak-na kamenu sjedim sam X 5-6
Tap to rate this tab
 
# A B C D E F G H I J K L M N O P Q R S T U V W X Y Z