Song name
# A B C D E F G H I J K L M N O P Q R S T U V W X Y Z

Zox - Anything But Fine tab

i sat down one day and figured this whole song out. its amazing! i included the intro
part ill probably update with the rest of the violin stuff later. the notes in parenthases
only occaisionally heard and if you hit them every so often it sounds good. listen to 
actual song for strumming!

intro:
e---13-15-17-13-12---------------------------------------------|
b-13---------------15-13-13---13----15-13----------------------|
g--------------------------------14-------14-12-14-12-14-12----|
d-----------------------------------------------------------15-|
a--------------------------------------------------------------|
e--------------------------------------------------------------|

e---13-15-17-13-12---------------------------------------------|
b-13--------------15-13-13---13----15-13-----------------------|
g-------------------------------14-------14-12-14--------------|
d-------------------------------------------------15-----------|
a--------------------------------------------------------------|
e--------------------------------------------------------------|

Verse:
e----------------------------|
b-(10)-----(6)---------------|
g--10--(7)--7-(7)-------(7)--|
d--10---8---7--8--7-10---8---|
a--8----8---5--8--8-10---8---|
e-------6------6--5--8---6---|

chorus:
e-----------------------|
b-(10)------------------|
g--10--(9)-----7--------|
d--10--10--12--8--------|
a--8---10--12--8--------|
e------8---10--6--------|

e--------------------|
b-(10)---------------|
g--10--(9)-7---------|
d--10--10--8---------|
a--8---10--8---------|
e------8---6---------|

bridge:
e-----------------------|
b-----------------------|
g-----------------------|
d-----------------------|        (x3!!!)
a-----------------------|
e-888-101010-6666666666-|
        ^ those are 10's!

then on the 4th....
e-----------------------|
b-----------------------|
g-----------------------|
d-----------------------|
a-----------------------|
e-8888889(hold that 9!)-

then....
e---------------------------------------|
b---------------------------------------|
g---------------------------------------|
d---------------------------------------|
a-555555-3333333333---------------------|
e-------------------111111-6666666666---|

e---------------------------------------|
b---------------------------------------|
g---------------------------------------|
d---------------------------------------|
a-555555-3333333333---------------------|
e-------------------6666666666666666----|

then chorus til the end.
you better love me because nobody else tabbed that.
woohoo!
Tap to rate this tab
 
# A B C D E F G H I J K L M N O P Q R S T U V W X Y Z