Song name
# A B C D E F G H I J K L M N O P Q R S T U V W X Y Z

Zrik - Dream Of The Past tab

a medieval melodi i made
it a loop so you can play it over and over again if you like.

e|-1--0--1-----0-------------------3--1--0--0--5-----------------------------|
B|----------3-----3--0--------0-------------------5--3--1--0--1--------------|
G|----------------------0--5-----5----------------------------2--------------|
D|---------------------------------------------------------------------------|
A|-------------0----------------------------0-----------------0--------------|
E|----------------------------0----------------------------0-----------------|

e|----------3--0----------------------|
B|-1--3--5--------3--0------------0---|
G|-----------------------1------------|
D|--------------------------2---------|
A|----------3--0---------------3------|
E|----------------3--0------------0---|
Tap to rate this tab
# A B C D E F G H I J K L M N O P Q R S T U V W X Y Z