Song name
# A B C D E F G H I J K L M N O P Q R S T U V W X Y Z

Zug Izland - Just A Dream tab

Zug Izland - Just A Dream
Submitted By: juggalo_zentigix
EMail: the_great_2bad@hotmail.com


Main Riff
G---------------------------------------
D------1--------------------------------
A-3---------1----3-----3----1----3------
E---------------------------------------


Chorus "Walls, they go under and there over the top"
G--------------------------------------
D-3----6-------------------------------
A-----------3--------------------------
E--------------------------------------e----------------------------------------------------------
B--------------------------4-3-1---------------------------
G----5-----8-8-----3-----5------------5-5-----33-----------
D----------------------------------------------------------
A-3-----6-------1-----3------------3-------1------3--------
E----------------------------------------------------------
Tap to rate this tab
# A B C D E F G H I J K L M N O P Q R S T U V W X Y Z