Song name
# A B C D E F G H I J K L M N O P Q R S T U V W X Y Z

Zulu Winter - Lets Move Back To Front tab

Hello! I could not find this Tab anywhere else so I decided to make my own.
I learned this song all by ear and I think it's pretty accurate.
Feel free to make any corrections.


***Note This is my first tab I've made so I'm sorry in advance.



Zulu Winter
Let's Move Back To Front


Intro:
D#/G (x2)     Gm         A#/F      Gm/A#
----11--- ---10----- x--------- -----3----|
----11--- -----11--- -----3---- -----3----|
------12- -------12- -----3---- -----3----|
x-------- x--------- -----3---- x---------|
x-------- x--------- x--------- x---------|
x-------- x--------- x--------- x---------| (x3)


Chorus:

---6-3------     ---6-3------|
-------6-4--     -------6-3--|
------------     ------------|
------------     ------------|
------------     ------------|
------------ (x4)------------| (x4)


Intro (again)

D#/G (x2)     Gm         A#/F      Gm/A#
----11--- ---10----- x--------- -----3----|
----11--- -----11--- -----3---- -----3----|
------12- -------12- -----3---- -----3----|
x-------- x--------- -----3---- x---------|
x-------- x--------- x--------- x---------|
x-------- x--------- x--------- x---------| (x3)


Chorus (Again)

---6-3------     ---6-3------|
-------6-4--     -------6-3--|
------------     ------------|
------------     ------------|
------------     ------------|
------------ (x4)------------| (x4)


Intro To Solo

-33333333333333333333333333333333333333333333333333333333333333333333333-|
-------------------------------------------------------------------------|
-------------------------------------------------------------------------|
-------------------------------------------------------------------------|
-------------------------------------------------------------------------|
-------------------------------------------------------------------------|


------------------------3-3-3--------------------------------------------|
-----------6-6-6--3-3-3-------6-6-6--3-3-3--6-6-6------------------------|
----3-3-3----------------------------------------------------------------|
-------------------------------------------------------------------------|
-------------------------------------------------------------------------|
-------------------------------------------------------------------------|


Solo:

-------------------------------------------------------------------------|
------------------------------------------6-8----------------------------|
-----------------------------------------------------(x2)----------------|
---10-10--8-----10-10--8-----10-10--8------------------------------------|
------------10------------------------10---------------------------------|
-------------------------------------------------------------------------|

---------------------------------------------------------------------------|
---------------------------------------------------------------------------|
---7-7--5--------7-7--5------7-7--5----------5-----------------------------|
-----------8--------------------------8---------8------(x2)----------------|
---------------------------------------------------------------------------|
---------------------------------------------------------------------------|

-------------------------------------------------------------------------|
------------------------------------------6-8----------------------------|
-------------------------------------------------------------------------|
-----------------------------------------------------(x2)----------------|
---10-10--8-----10-10--8-----10-10--8------------------------------------|
------------10------------------------10---------------------------------|


Outro:

------------------------3-3-3--------------------------------------------|
-----------6-6-6--3-3-3-------6-6-6--3-3-3--6-6-6------------------------|
----3-3-3----------------------------------------------------------------|
------------------------------------------------------(x4)---------------|
-------------------------------------------------------------------------|
-------------------------------------------------------------------------|
Tap to rate this tab
# A B C D E F G H I J K L M N O P Q R S T U V W X Y Z