Song name
# A B C D E F G H I J K L M N O P Q R S T U V W X Y Z

Zurdok - Gallito Ingles tab

Artista: Zurdok.
Canción: Gallito Inglés.
Submiter: HateFizt.

Ésta genial canción tiene sonidos muy duros, pues está afinada unos cuantos tonos hacia 
Debes afinar tu instrumento en: C, G, C, F. Sólo ocupas esas cuatro cuerdas.             
                (6, 5, 4, 3).

"(~)" Let the notes ring / Deja sonar las notas.

Intro/Verso.
------------------------|--------------|
------------------------|--------------|
--------------6-6-------|6-6-6-6-6-6-6-|
0-3-5-3-0-6-0-6-6-4-3-4-|6-6-6-6-6-6-6-|
0-3-5-3-0-6-0-4-4-4-3-4-|4-4-4-4-4-4-4-|
0-3-5-3-0-6-0-----4-3-4-|--------------|

Repite y deja al bajo hacer lo suyo, hasta que veas donde viene el puente:

Puente.
---------------------|-------------------------------|
------x3-------------|-------------------------------|Quién es, quién es!?
---------------------|-------------------------------|Quién es, quién es!?
0-3-0-3/6--0-3-0-3/6-|-0-3-0-0-6-5-6-5-5-6-0~--------|
0-3-0-3/6--0-3-0-3/6-|-0-3-0-0-6-5-6-5-5-6-0~--------|
0-3-0-3/6--0-3-0-3/6-|-0-3-0-0-6-5-6-5-5-6-0~--------|

En este momento entra aquel sonido raro de metal y después del solo; nada difícil, nada mal:

Solo.
------------------------------------------------------|
------------------------------------------------------|
------------------------------------------------------|
7-7-7-7-7-7-------------------------------------------|
------------7-8-7-8-7-5-3-5-5-5-5-5-5-5---------------|
----------------------------------------3-3-3-5-5-5-5-|

-----------------------------------------------------|
-----------------------------------------------------| Eso es. ¡Apréndete
----------9-10-9-10-9-7-5-7-7-7-7-7-7----------------| el órden y empieza
7-7-7-7-7------------------------------6-5-6-6-6-6---| a tocar!
---------------------------------------6-5-6-6-6-6---|
---------------------------------------6-5-6-6-6-6---|

¡Ready for action! Aquí tienes; estoy seguro que no es perfecto, pues evité meter los 
casi inperceptibles que podrás deducir con unos buenos audífonos. Lo hice porque por lo 
de que son inotables,
podrías fichar esta tab' como errónea a causa de las
confusiones que generarían.

Zurdok kick ass. Agradecimientos, consejos, correcciones, abrazos, reproches y amenazas
bienvenidas a Prestame_la_bici@hotmail.com.
O si quieres, sólo escribeme en comentarios; adiós.

http://www.geocities.com/zurdok_movimiento/
Tap to rate this tab
# A B C D E F G H I J K L M N O P Q R S T U V W X Y Z