Song name
# A B C D E F G H I J K L M N O P Q R S T U V W X Y Z

Zurgi - Inside Your Mind tab

-------------------------------------------------------------------------------
			     Inside Your Mind - ZurGi
-------------------------------------------------------------------------------
Tabbed by: Zur A Javakhia
Email: nickush4a@yahoo.com

Tuning: standard

(verse)
       
        let's drink           a cup of coffee
e|---------------------------------------------------------------------------|
B|--1---------------------1--------------------------------------------------|
G|------------------------------3--------------------------------------------|
D|-----2---------------------2-----------------------------------------------|
A|---------3--------------------3--------------------------------------------|
E|---------------------------------------------------------------------------|

        let's drink some    wine
e|--------------------------3------------------------------------------------|
B|--1------------------------------------------------------------------------|
G|-----2---------------------------------------------------------------------|
D|---------3-----------------------------------------------------------------|
A|---------3----------------2------------------------------------------------|
E|--------------------------3------------------------------------------------|


I can see the stars in the sky
But you think im blind 

(chorus)

Well im  standing here 
Wainting for you 
Drinking the wine 
Watching the stars 
While i'm trying to be 
Inside your mind 
Wainting the moment 
When youll be mine. 

(verse2)

Let's drink a cup of coffee
Im sick i'm tired i'm wainting for you
I can see the stars 
And stars are only for me and you

(chorus)

Well i'm  standing here 
Wainting for you 
Drinking the wine 
Watching the stars 
While i'm trying to be 
Inside your mind 
Wainting the moment 
When youll be mine. 


************************************

http://soundcloud.com/zurgi/zurgi-inside-your-mind-giorgi
http://www.facebook.com/ZurGii
Tap to rate this tab
# A B C D E F G H I J K L M N O P Q R S T U V W X Y Z