Zuri West - Ich Schenke Dir Mis Herz tab

-------------------------------------------------------------------------------
			     Ich schänke dir mis herz – Züri West
-------------------------------------------------------------------------------
Tabbed by: ilikemahagony
Email: martin_bueki@hotmail.com

Tuning:Standard

Chords: Am C G E F

e|--------------------------5--------------------------------------------------|
B|-------------------5-----------8br---------------5---------------------------|
G|-------------5-------------------------7--7—7p5-------7----7p5h7-------------|
D|--------7--------------------------------------------------------------------|
A|-----------------------------------------------------------------------------|
E|-----------------------------------------------------------------------------|

e|---------------------------5--------8--------------------------------------|
B|-------------------5-------------8b-----8br~-------------------------------|
G|-------------5-------------------------------------------------------------|
D|-------7-------------------------------------------------------------------|
A|---------------------------------------------------------------------------|
E|---------------------------------------------------------------------------|

Use Wah-Pedal  for the original sound


************************************

| /   slide up
| \   slide down
| h   hammer-on
| p   pull-off
| ~   vibrato
| +   harmonic
| x   Mute note
| b   Bend
| pb  Pre-bend
| br  Bend release
| pbr Pre-bend release
| brb Bend release bend

************************************
Tap to rate this tab
 
# A B C D E F G H I J K L M N O P Q R S T U V W X Y Z