Song name
# A B C D E F G H I J K L M N O P Q R S T U V W X Y Z

Zutons - Pressure Point tab

Saw half a tab for this, tried to finish it off... First tab so go easy...
Main Riff:

E|----------------|
B|----------------|
G|----------------|      Repeat Several Times
D|----------------|
A|----------------|
E|----5h7---------|

Chorus:

E|---10-10-10-10-10-10-10---7-7-7-7-7-7-7-7
B|---10-10-10-10-10-10-10---7-7-7-7-7-7-7-7
G|---11-11-11-11-11-11-11---8-8-8-8-8-8-8-8      
D|---12-12-12-12-12-12-12---9-9-9-9-9-9-9-9
A|---12-12-12-12-12-12-12---9-9-9-9-9-9-9-9
E|---10-10-10-10-10-10-10---7-7-7-7-7-7-7-7

Post Chorus and 2nd verse riff:

E|-----10----7-7-7-7-7---|
B|-----------------------|
G|-----------------------|      Repeat Several Times
D|-----------------------|
A|-----------------------|
E|-----------------------|

Solo:


E|------10----12----14--12--10----|
B|---12----12----12------------12-|  Couldn't get the rest, sorry!
G|--------------------------------|     
D|--------------------------------|
A|--------------------------------|
E|--------------------------------|




Tap to rate this tab
# A B C D E F G H I J K L M N O P Q R S T U V W X Y Z