Song name
# A B C D E F G H I J K L M N O P Q R S T U V W X Y Z

Zutons - You Will You Wont tab

The Zutons - You Will You Wont	
(Standard tuning)

Tabbed By James McLafferty
j_mclafferty@yahoo.co.uk


Chords
        E  A  D  G  B  e

D7    - x  x  x  14 13 14
D*    - x  x  16 14 15 14
C*    - x  x  14 12 13 12
D     - 10 12 12 11 x  x 
C     - 8  10 10 9  x  x
G     - 3  5  5  4  x  x
A     - 5  7  7  6  x  x


Intro
-----
0:00

           D7
E  :5/-/-/-14-14-14-14-14-14-14-14-14-14-14-14|
B  :4/-/-/-13-13-13-13-13-13-13-13-13-13-13-13|
G  :5/-/-/-14-14-14-14-14-14-14-14-14-14-14-14|
D  :------------------------------------------|
A  :------------------------------------------|
E  :------------------------------------------|
    Gtr2           

This a slow slide up, keeping the same chord shape


0:04

E  :----------------------|
B  :----------------------|
G  :----------------------|
D  :7-7-6-6-5-5-4-4-3-3-2-|
A  :----------------------|
E  :----------------------|
    Gtr1

Gtr2 and Bass play this descending chromatic line over the D7 chord.


Verse
-----
It is just bass until 
0:23


    D  D  C  D
E  :-----------------------------|
B  :-----------------------------|
G  :11-11--9-11------------------|
D  :12-12-10-12--(x--x--x-)------|
A  :12-12-10-12--(x--x--x-)------|
E  :10-10--8-10--(10-10 10)------|
    Gtr1          | fill  |

    D* D* C* D*
E  :14-14-12-14------------------|
B  :15-15-13-15------------------|
G  :14-14-12-14------------------|
D  :16-16-14-16------------------|
A  :-----------------------------|
E  :-----------------------------|
    gtr2

This is the main repaeting figure during the verse., with Gtr1 throwing 
in the fill the second time round. Gtr2 also plays the high D7 as an
occasional fill



It fits like so :

    D  D C   D
You Will You wont
    D D C   D
You do  you don't
       D  D   C   D
You're saying you will
       D  D   C   D
But you know you won't



Break
-----
Both guitars play the same chords


          G
Well I've tried so hard

I've tried so hard
   A
To make it right

To make it right
          G
I'm gonna bury my thoughts

And forget all my worries
   A
Tonight
Tap to rate this tab
# A B C D E F G H I J K L M N O P Q R S T U V W X Y Z