Song name
# A B C D E F G H I J K L M N O P Q R S T U V W X Y Z

Zutons - Its The Little Things We Do tab

Intro/Verse

|----------------------------------------|
|----------------------------------------|
|--13--13--12--12--10--10--7--7--5--7----|
|--13--13--12--12--10--10--7--7--5--7----|
|--11--11--10--10---8---8--5--5--3--5----|
|----------------------------------------|

Chorus

|---------------------------------------|
|---------------------------------------|
|--5555555555555555--7777777777777777---|
|--5555555555555555--7777777777777777---|
|--3333333333333333--5555555555555555---|
|---------------------------------------|X2

|--------------------------------------------------------|
|--------------------------------------------------------|
|--10101010101010101010101010101010--7777777777777777----|
|--10101010101010101010101010101010--7777777777777777----|
|---7-7-7-7-7-7-7-7-7-7-7-7-7-7-7-7--5555555555555555----|
|--------------------------------------------------------|

|---------------------------------------|
|---------------------------------------|
|--5555555555555555--7777777777777777---|
|--5555555555555555--7777777777777777---|
|--3333333333333333--5555555555555555---|
|---------------------------------------|

Bridge

|-----------------------------------------------|
|-----------------------------------------------|
|--10-10-10-10-10-10-10-10-10--7-7-7-7-7-7-7-7--|
|--10-10-10-10-10-10-10-10-10--7-7-7-7-7-7-7-7--|
|---8--8--8--8--8--8--8--8--8--5-5-5-5-5-5-5-5--|
|-----------------------------------------------|X4

Outro

|--------------------------------|   |--------|
|--------------------------------|   |--------|
|--13--13--12--12--10--10--7--7--|   |--5--7--|
|--13--13--12--12--10--10--7--7--|   |--5--7--|
|--11--11--10--10---8---8--5--5--|   |--3--5--|
|--------------------------------|X3 |--------|

Order:
Intro
verse
Chorus
Verse
Chorus
Bridge
Chorus X2
Outro
Tap to rate this tab
 
# A B C D E F G H I J K L M N O P Q R S T U V W X Y Z