Song name
# A B C D E F G H I J K L M N O P Q R S T U V W X Y Z

Zwan - El-a-noy tab

Zwan - El-A-Noy

tuning: C# F# B E G# C#

intro            x2
|--------0-----2--|
|--0-----3-----3--|
|--0-----2-----4--|
|--2-----0-----4--|
|--2-----2-----2--|
|--0--------------|


verse1           x2
|--------0-----2--|--0----2----0----0--|
|--0-----3-----3--|--3----3----3----0--|
|--0-----2-----4--|--2----4----2----2--|
|--2-----0-----4--|--0----4----0----2--|
|--2-----2-----2--|--2----2----2----0--|
|--0--------------|--------------------|

		 x2
|--------0-----2--|
|--0-----3-----3--|
|--0-----2-----4--|
|--2-----0-----4--|
|--2-----2-----2--|
|--0--------------|


verse2           x2
|--------0-----2--|--0----2----0----0--|
|--0-----3-----3--|--3----3----3----0--|
|--0-----2-----4--|--2----4----2----2--|
|--2-----0-----4--|--0----4----0----2--|
|--2-----2-----2--|--2----2----2----0--|
|--0--------------|--------------------|

		 x3
|--------0-----2--|
|--0-----3-----3--|
|--0-----2-----4--|
|--2-----0-----4--|
|--2-----2-----2--|
|--0--------------|


bridge           x2
|--2-----0----0--|------|
|--3-----0----3--|--0---|
|--4-----2----4--|--2---|
|--4-----2----4--|--2---|
|--2-----0----2--|--0---|
|----------------|--0---|

		 x3
|--------0-----2--|
|--0-----3-----3--|
|--0-----2-----4--|
|--2-----0-----4--|
|--2-----2-----2--|
|--0--------------|


verse3           x2
|--------0-----2--|--0----2----0----0--|
|--0-----3-----3--|--3----3----3----0--|
|--0-----2-----4--|--2----4----2----2--|
|--2-----0-----4--|--0----4----0----2--|
|--2-----2-----2--|--2----2----2----0--|
|--0--------------|--------------------|

		 x2
|--------0-----2--|
|--0-----3-----3--|
|--0-----2-----4--|
|--2-----0-----4--|
|--2-----2-----2--|
|--0--------------|


verse4           x2
|--------0-----2--|--0----2----0----0--|
|--0-----3-----3--|--3----3----3----0--|
|--0-----2-----4--|--2----4----2----2--|
|--2-----0-----4--|--0----4----0----2--|
|--2-----2-----2--|--2----2----2----0--|
|--0--------------|--------------------|

		 x2
|--------0-----2--|
|--0-----3-----3--|
|--0-----2-----4--|
|--2-----0-----4--|
|--2-----2-----2--|
|--0--------------|


bridge           x2
|--2-----0----0--|------|
|--3-----0----3--|--0---|
|--4-----2----4--|--2---|
|--4-----2----4--|--2---|
|--2-----0----2--|--0---|
|----------------|--0---|

		 x2
|--------0-----2--|
|--0-----3-----3--|
|--0-----2-----4--|
|--2-----0-----4--|
|--2-----2-----2--|
|--0--------------|


verse5           x2
|--------0-----2--|--0----2----0----0--|
|--0-----3-----3--|--3----3----3----0--|
|--0-----2-----4--|--2----4----2----2--|
|--2-----0-----4--|--0----4----0----2--|
|--2-----2-----2--|--2----2----2----0--|
|--0--------------|--------------------|

		 x3
|--------0-----2--|
|--0-----3-----3--|
|--0-----2-----4--|
|--2-----0-----4--|
|--2-----2-----2--|
|--0--------------|
Tap to rate this tab
 
# A B C D E F G H I J K L M N O P Q R S T U V W X Y Z