Song name
# A B C D E F G H I J K L M N O P Q R S T U V W X Y Z

Zwan - Lyric tab

-------------------------------------------------------------------------------
			     Lyric - Zwan
-------------------------------------------------------------------------------
Tabbed by: TBSFan2758
Email:jchau@mybluelight.com

This is an awesome song from a kick ass band.

Tuning: EADBGe

Gtr.1
e|----------0----------------------------5------------5----------|
B|------3-----3---3----3------3------3-----3------3-----3--------|
G|----2---2-----0----0---0--0---0--0---0----0---0---0-----0------|
D|--0---------------2------4------5-----------5------------------|
A|---------------------------------------------------------------|
E|---------------------------------------------------------------|
You play this twice before the 1st verse comes in. The 1st verse 
is this too.

Gtr.2
e|-------------------------------|
B|---13~----12~------10~---------|
G|-------------------------12~---|
D|-------------------------------|
A|-------------------------------|
E|-------------------------------|

Gtr.3  D U D
e|-----0-0-0---------------------|
B|-----3-3-3---------------------|
G|-----2-2-2---------------------|
D|-----0-0-0---------------------|
A|-------------------------------|
E|-------------------------------|

G|-------------------4---6-----|
D|----2---4---5---7------------|
A|-----------------------------|
E|-----------------------------|
Bass transcribed for the guitar.(i will update this!)

U= up strokes
D= down strokes
~= vibrato 


The intro is pretty easy. It just takes practice. Please rate me and email me on how it is.
Tap to rate this tab
# A B C D E F G H I J K L M N O P Q R S T U V W X Y Z