Song name
# A B C D E F G H I J K L M N O P Q R S T U V W X Y Z

Zwan - Of A Broken Heart tab

zwan of a broken heart
--------4p0---------------------|
-----5--------------------------|
-6br-------4--/8----8s9s11-9----|
--------------------------------|
--------------------------------|
--------------------------------|

--------4p0----------0----|
-----5-------------7------|
-6br---------4--/8-----8--|
--------------------------|
--------------------------|
--------------------------|

--------------------------|
--------------------------|
--------------------------| (i think the low e string
-----------------9-11-----| is actually bass)
-----------7-7/11---------|
-5-4-2--/5----------------|

--------------------------|
--------------------------|
-11br-9-11br-11~-9-9h11\--|
--------------------------|
--------------------------|
--------------------------|

--------------------------|
--------------------------|
--------------------------|
--------------------------|
---------7h9p7p6-8--------|
-5-4-2--------------------|

--------------------------|
--------------------------|
--------------------------|
-s6-s6--------------------|
---------s7--s7-6---------|
--------------------------|

i had trouble with the long pull off hammer on thing. but i think i got close
Tap to rate this tab
# A B C D E F G H I J K L M N O P Q R S T U V W X Y Z