Song name
# A B C D E F G H I J K L M N O P Q R S T U V W X Y Z

Zz Top - Sharp Dressed Man tab

!!SHARP DRESSED MAN??
       ZZ TOP
Tab by Whomadewho2
composers  Billy F Gibbons, Dusty Hill and Frank Beard


Intro
|----------------------------------------|
|----------------------------------------|
|-----------10------8--------------------|
|-----------10------8---10---------------|
|----------------------------------------|
|--------8------8------------8----8------|

|-----------------------------|
|-----------------------------|
|-10--8-----------------------|
|-10--8----10~~---------------|
|-----------------------------|
|--------8--------------------|

|-----------------------------|
|-----------------------------|
|------10------8--------------|
|------10------8--10----------|
|--x--------------------------|
|-----------8---------8---8---|

|-------------------|
|-------------------|
|-------------------|
|----10-------------|
|----10--10---------|
|----8--------------|


|--------------------------------|
|--------------------------------|
|--------------------------------|
|-------------------5--------5---|
|-------------1/3---3--------3---|
|---------3----------------------| Do all the into parts in order 3 times


Verse

|------------------------------------------------------------------|
|------------------------------------------------------------------|
|------------------------------------------------------------------|
|--5-------------------5------------------5\3---------------3------|  X2
|--3--------------1/3--3------------------3\1---------------1--3---|
|-------------3------------------------x-----------------------1---|

If you would like to here the rest of the song im still working out the kinks so E-mail 
I might have a more accurate vertion. im still working on the solo visit other peoples 
for that I dont no that yet
Tap to rate this tab
# A B C D E F G H I J K L M N O P Q R S T U V W X Y Z