Guitaretab - guitar tabs
Song name
# A B C D E F G H I J K L M N O P Q R S T U V W X Y Z

Zz Top - Woke Up With Wood tab

-------------------------------------------------------------------------------
			     Woke Up With Wood Solo - ZZ Top
-------------------------------------------------------------------------------
Tabbed by: Todd Rawls
Email: toddrawls@earthlink.net

Tuning: Use regular tuning
Listen to the song to figure out the timing

e|--------------8--------------8----------8---------------------------------|
B|----11b--------11-8--------8---11b--------11-8------8---------------------|
G|--------------------10b------------------------10b------------------------|
D|-------------------------------------------------------10-----8--8--------|
A|---------------------------------------------------------------10-10/8----|
E|--------------------------------------------------------------------------|
[ Tab from: http://www.guitaretab.com/z/zz-top/21270.html ]
e|----------------------------------8-----------8------8--------------------|
B|-------------------------11b-------11-8------8-11b-----11-8--------8------|
G|----------------------------------------10b-----------------10b-----------|
D|-----------------1----------------------------------------------------10--|
A|-6-----------1-3---3------------------------------------------------------|
E|---8-8-----3--------------------------------------------------------------|

e|--------------------------------------------------------------------------|
B|--------------------------------------------------------------------------|
G|--------------------------------------------------------------------------|
D|-8-8--------------1------------------------------------------------------|
A|--10-10/8-6-------3-1-3-3-1-----------------------------------------------|
E|------------8-8-----------------------------------------------------------|
		    ^Gibbons uses artificial harmonics for these 6 notes

| /  slide up
| \  slide down
| h  hammer-on
| p  pull-off
| ~  vibrato
| +  harmonic
| x  Mute note
===============================================================================
Related for Woke Up With Wood tab