Song name
# A B C D E F G H I J K L M N O P Q R S T U V W X Y Z

Zz Top - Planet Of Women tab

-------------------------------------------------------------------------------
			     Planet of Women - Zz Top
-------------------------------------------------------------------------------
Tabbed by:me

Tuning: standard

  intro:
e|--------------------------------------------------------------------0----|
B|---2----2----2----2----------------3-----2----2----2----2-----------0----|
G|---2----2----2----2----------4-2-4-2-----2----2----2----2-----------1----|
D|---2----2----2----2--2-4-----4-2-4-0-----2----2----2----2--2-4---2-------|
A|-5-0--5-0--5-0--5-0------5-2-2-0-2-0---5-0--5-0--5-0--5-0------5-2-------|
E|-----------------------------------------------------------------0-------|
  [                X2                 ]

  Chorus:
e|-------------------------------------------------------------------------|
B|-------------------8-7--7/8---------------------8-7----------2---2-------|
G|-9-x-9-9-x-9-9----------------9-x-9-9-x-9-9---------7---4----2---2-------|
D|-9-x-9-9-x-9-9--7-9---9-------9-x-9-9-x-9-9--7-9----7---4----2---2--2----|
A|-7-x-7-7-x-7-7----------------7-x-7-7-x-7-7---------5---2--5-0-5-0--2----|
E|--------------------------------------------------------------------0----|
  [            X2             ]
e|-------------------------------------------------------------------------|
B|-----------2---2---------------------------------------------------------|
G|------4----2---2-----5-7-------------------------------------------------|
D|-5-7--4----2---2--2--5-7---------------5---------------------------------|
A|-5-7--2--5-0-5-0--2--3-5--5-7-5-7----5--7--------------------------------|
E|-3-5--------------0----------------7-------------------------------------|
       (repeat chorus twice)

  Solo #1: key of B
e|-------------------------------------------------------------------------|
B|------------------------7-9-7----------------12\--7-9-7------------------|
G|-------9----------------7-9-7---------------------7-9-7-14-16h--16-14----|
D|-/9--9---7-9------------7-9-7--/9--9-7------------7-9-7------------------|
A|-------------7-9-5-7-5-----------------5-7-5-----------------------------|
E|-------------------------------------------------------------------------|

e|-------------------------------------------------------------------------|
B|-----------7-9-7--------------------------7-9-7--15-15-12-15-12----------|
G|-----------7-9-7--19p-16--16-14-----------7-9-7------------------14-16-16|
D|-12-14-12--7-9-7----------------12-14-12--7-9-7----------------16--------|
A|-------------------------------------------------------------------------|
E|-------------------------------------------------------------------------|

e|-------------------------------------------------------------------------|
B|-------------------------------------------------------------------------|
G|-14-16----16-11-16-11-14-11----------------------------------------------|
D|------16-------------------14-12-14-12----12-14-9-12--7------------------|
A|--------------------------------------14------------9h--7-5--7-5-7-7-5---|
E|------------------------------------------------------------7---7---7--7-|

e|---------------------------------------------------------------------------|
B|----------------------------7----------------------------------------------|
G|--------7-9-9b-7-7-9--7-7---7----------------------------------------------|
D|---/9-9-------------------9-7----------------------------------------------|
A|---------------------------------------------------------------------------|
E|-/7------------------------------------------------------------------------|


  Solo #2: Key of B (gasp)
e|-------------------------------------------------------------------------|
B|-----------------7-7------------------------9b-----------------7b--------|
G|-9b-7-----7------7-7-9----7-----------7-9---9b-7-9-------------7b-4-4----|
D|------9--9-9-9-9-7-7--7-9--9-9-7--7-9----9--------9--9-9-7-7-9-----7--7-4|
A|---------------------------------9--------------------9-9----------------|
E|-------------------------------------------------------------------------|

e|-------------------------------------------------------------------------|
B|---------------------------------------------9---------7---7-------------|
G|---------------------7-9-7-9-7-9-7-7---7--9--9---------7---7-------7-9---|
D|-----------------7-9--9-9-----9-9---9--7--9--9-7-9-9---7---7-9-9--9------|
A|-7--5-7------7-9-----------------------5--7----------9---9---------------|
E|--------7h---------------------------------------------------------------|

e|-------------------------------------------------------------------------|
B|----------------10--10---------------------------------------------------|
G|---9b-9b-7----9b--9b--9br-7--7-7-----------------------------------------|
D|-9---------9----------------9---9--9-7--9--7-----------------------------|
A|--------------------------------------9------9-7-------------------------|
E|-------------------------------------------------------------------------|
     fades to black.....

************************************

| /   slide up
| \   slide down
| h   hammer-on
| p   pull-off
| ~   vibrato
| +   harmonic
| x   Mute note
| b   Bend
| pb  Pre-bend
| br  Bend release
| pbr Pre-bend release
| brb Bend release bend

************************************
Tap to rate this tab
 
# A B C D E F G H I J K L M N O P Q R S T U V W X Y Z