Zz Top - Shes Just Killing Me tab

Hey there.
Here's She's Just Killing Me by the ZZ Top.
If you read that, it must be that you also think this song is awesome.

Yes it's in standard tunning.

Intro riff: x3
|---------------------------------|
|---------------------------------|
|------------------------2--0-----|
|------------------------2--0-----|
|-----5--5------5--5--------------|
|-0-0-3--3--0-0-3--3--0-------3---|

	    last time
|---------------------------------|
|-----------------------------  --|
|------------------------2---- *--|
|------------------------2----  --|
|-----5--5------5--5----------  --|
|-0-0-3--3--0-0-3--3--0-----3-----|

* For more accuracy please howl like a wolf here.

Verse riff:

|---------------------------|
|---------------------------|
|---------------------------|
|------------------------2--|
|---------------------------|
|-x--3-0-3-0--3-0-3-0-3-0---|
                         ^(harmonic)
In the second verse he does an harmonic on a G instead of doing it on a E.

|---------------------------|
|---------------------------|
|---------------------------|
|------------------------0--|
|---------------------------|
|-x--3-0-3-0--3-0-3-0--3----|


|---------------------------|
|---------------------------|
|---------------------------|
|------------------------2--|
|---------------------------|
|-x--3-0-3-0--3-0-3-0-3-0---|

|---------------------------|
|---------------------------|
|---------------------------|
|---------------------------|
|---------------------------|
|-x--3-0-3-0--3-0-3-0-------|


Bridge:
|---------------3---3---|
|---------------0---0---|
|-----11-9---2----2-----|
|-----11-9---2----------|
|------------0----------|
|-9-9-------------------|


Chorus:   x3
|----------------|
|----------------|
|-------------2--|
|-------------2--|
|-------------0--|
|-3--0-3-0--3----|

|---------------------|
|---------------------|
|---------------------|
|-4444444444444444----|
|-4444444444444444----|
|-2222222222222222-s\-|
(didn't count it sorry...)
|---------------|
|---------------|
|---------------|
|---------------|
|-0h2p0---------|
|-------5p(3)3--|


Then repeat it from the start. 
After chorus 2 theres the solo:

Dusty plays E for 6 measures i think and A for 2. 
Then he goes back to the intro riff... You'll figure it out with 

feeling, I believe in you. And don't forget to howl after the first solo.

Please rate my tab, comment or correct!
Thanks!
Tap to rate this tab
 
# A B C D E F G H I J K L M N O P Q R S T U V W X Y Z