Song name
# A B C D E F G H I J K L M N O P Q R S T U V W X Y Z

Zz Top - Mexican Blackbird tab

Verse

e|----------------------|
B|----------------------|
G|-6---6---5b(6)-6------|
D|-7---7---------7------|
A|-7---7---------7------|
E|----------------------|

e|----------------------|
B|----------------------|
G|-7---7b(9)-7b(9)------|
D|-7--------------------|
A|-5--------------------|
E|----------------------|

e|-----------------------------|
B|-----------------------------|
G|-6--6---5b(6)-6-6--6--5b(6)-6|
D|-7--7---------7-7--7--------7|
A|-7--7---------7-7--7--------7|
E|-----------------------------|

e|----------------------------|
B|----------------------------|
G|-7---7---7-7--7-------------|
D|-7---7---7-7--7-------------|
A|-----------------3b-3b------|
E|----------------------------|

e|------------------------------|
B|------------------------------|
G|-6--6--5b(6)-6--6---6--5b(6)-6|
D|-7--7--------7--7---7--------7|
A|-7--7--------7--7---7--------7|
E|------------------------------|


Lead guitar 0:25

e|------------------------------|
B|-----12-9------10--5-----5----|
G|-7s9-------5s7-----7b(9)-7b(9)|
D|------------------------------|
A|------------------------------|
E|------------------------------|

e|----------------|
B|--3s5v----------|
G|--4s6v---4-4-5--|
D|--5s7v---5-5-6--|
A|----------------|
E|----------------|



Background rythm 0:25

e|-----------------------|
B|-----------------------|
G|-----------7-----------|
D|-----------7-----------|
A|-------7---5--3b-3b----|
E|-0-3s4-----------------|


e|----------------------|
B|----------------------|
G|----------------------|
D|----------------------|
A|----------------------|
E|-0--0--3-3-4----------|


Then there is another verse
wich is played in more or less
the same way as the last verse.
After that you have to learn the
solo. I`ll make a tab if you
want me to, so just send me a
message if you want me to!

In the meantime you have the
mainbase of the song here.
Tap to rate this tab
# A B C D E F G H I J K L M N O P Q R S T U V W X Y Z