Song name
# A B C D E F G H I J K L M N O P Q R S T U V W X Y Z

Zz Top - Thug tab

-------------------------------------------------------------------------------
			     THUG - ZZ Top
-------------------------------------------------------------------------------


Tabbed by: Isaias Garcia (TexasFury)

Tuning: Standard/Drop D


For guitarists, this is an extremely simple song. While the left panned guitar has the
two obvious riffs, closer listening shows there is a center panned guitar which mimics
one of the synthesizer lines. This center guitar is in Drop D, while the left panned 
guitar can be either Drop D or Standard tuning (your choice, as the 6th string never gets
played). For the left guitar, I've provided an alternate version of playing Riff #2.



Rhythm guitar - center


Riff #1 - verse

     Q    Q    Q    Q       E  E  E  E  E  E  E  E
E||----------------------|--------------------------|
B||----------------------|--------------------------|
G||----------------------|--------------------------|
D||----------------------|--------------------------|
A||-------5----5---------|-----5--L--5--L--5--L--5--|
D||-----------------0----|--0-----------------------|



Rhythm guitar - left


Riff #1 - verse

     W                   H        E  E  E  E
E||-------------------|-----------------------|
B||-------------------|-----------------------|
G||-------------------|--------------5--5--5--|
D||-------------------|--------------5--5--5--|
A||-------------------|--------------3--3--3--|
E||-------------------|-----------------------|


Riff #2 - bridge

      Q     E   E   H           Q    E  E  H
E||--------------------------|----------------------|
B||--------------------------|----------------------|
G||--12----12--10---L--------|--7----7--5--L--------|
D||--12----12--10---L--------|--7----7--5--L--------|
A||--10----10---8---L--------|--5----5--3--L--------|
E||--------------------------|----------------------|


Riff #2 (alternate version)

      Q     E   E   H            Q     E   E   H
E||--------------------------|------------------------|
B||--------------------------|------------------------|
G||--12----12--10---L--------|------------------------|
D||--12----12--10---L--------|--12----12--10---L------|
A||--------------------------|--12----12--10---L------|
E||--------------------------|------------------------|




Get my other tabs for Guitar Pro, Powertab, guitar/bass text and chords at
http://profile.ultimate-guitar.com/TexasFury/contributions/
Tap to rate this tab
# A B C D E F G H I J K L M N O P Q R S T U V W X Y Z