Song name
# A B C D E F G H I J K L M N O P Q R S T U V W X Y Z

Zz Top - Mexican Blackbird tab

Mexican blackbird (Solo) - Zz Top 

Tuning: EADGBe 

So this is how the solo goes. I think you have
to use a slider to get the exsact same sound.

1:01
e|------5-5v--------5---5-5----5s3---5-------5---5s3----77--------------|
B|--5s7-7-------5s7-7-7------------7-----5s7---7-----5b-77--------------|
G|----------------------------------------------------------------------|
D|----------------------------------------------------------------------|
A|----------------------------------------------------------------------|
E|----------------------------------------------------------------------|

e|--------10-10----------10-----10----9b----10--------------------------|
B|--5s12-----------10s12-----12----12-----12----9b----------------------|
G|----------------------------------------------------11----------------|
D|-------------------------------------------------------12-------------|
A|----------------------------------------------------------------------|
E|----------------------------------------------------------------------|

e|----------------------------------------------------------------------|
B|-10s8p7-10-----------------------------------------0------------------|
G|-------------11s9-7------9---------9-------------7--------7-----------|
D|--------------------9s11---11s9-7----11----7s5-5-----5----5-----------|
A|----------------------------------------------------------------------|
E|----------------------------------------------------------------------|

e|------------10--------------------------------------------------------|
B|-------10------10s8-8--7--10s8-9-9b--7---7----------------------------|
G|--5s11--------------9b-7-------9-9b----7--------5b-7b--9b--7s5---7-7--|
D|--------------------------------------------5s7----------------7------|
A|----------------------------------------------------------------------|
E|----------------------------------------------------------------------|

1:39
e|----------------------------------------------------------------------|
B|--------------------------8--8---11b(12)-8----------------------------|
G|--7s5----------5-5s0----7m-7m-7m-----------5b-7b--9b9b--7s5--------7--|
D|------7-5--2s4----------------------------------------------5--2s4----|
A|----------------------------------------------------------------------|
E|----------------------------------------------------------------------|

e|----------------------------------------------------------------------|
B|--7-------------------10s---------------------------------------------|
G|----7s5-------7----11----------9-9s7---5s6-9--------11--------13------|
D|--------5-2s4--------------5s7-7--------------7-7s9----9-9s11---------|
A|----------------------------------------------------------------------|
E|----------------------------------------------------------------------|

e|----------------------------------------------------------------------|
B|-------------------0-0-1----------------------------------------------|
G|-6-6--9b-6----1--1----------------------------------------------------|
D|----------------------------------------------------------------------|
A|----------------------------------------------------------------------|
E|----------------------------------------------------------------------|

That`s the whole solo boys and girls. 
Hope you like it. Feel free to comment.



Tap to rate this tab
# A B C D E F G H I J K L M N O P Q R S T U V W X Y Z