Song name
# A B C D E F G H I J K L M N O P Q R S T U V W X Y Z

Zz Top - Chevrolet tab

ZZ Top  Chevrolet        Rio Grande Mud 1972     by-Dz
intro : X2
E|--12-----------------------------------------|
B|----15--12-----------------------------------|
G|-----------14b16--12-------2--------2vib-----|
D|--------------------14-----2-----------------|
A|---------------------------0---2-3-----------|
E|---------------------------------------------|

fig.1
E|----2-s4--2-2--0---------------|
B|-------------------------------|
G|----2-s4--2-2--1-------2-------|
D|-----------------------2-------|
A|-------------------3b----------|
E|-------------------------------|

fig.2
E|-------------------------------------------------------------------------------|
B|-------------------------------------------------------------------------------|
G|-------------------------0-2----------------------2------2---------------------|
D|--0-2--------------------0-2---2--4---2--2--4---5---5--4---4----2--0----2v-----|
A|--0-2---2--4---2--2--4---0-----0--0---0--0--0------------------------3b--------|
E|--0-----0--0---0--0--0---------------------------------------------------------|

fig.3
E|-----------------------------------------------------------------------|
B|-----------------------------------------------------------------------|
G|-------------------------0-2---------------------4---------------------|
D|--0-2--------------------0-2---2--4---2--2--4----4---4--6---4--4--6----|
A|--0-2---2--4---2--2--4---0-----0--0---0--0--0----2---0--0---0--0--0----|
E|--0-----0--0---0--0--0-------------------------------------------------|

break
E|---------------------------------|
B|---------------------------------|
G|---------------2--------2--------|
D|---2------2----2--------2--------|
A|---2------2----0---3-4-----------|
E|---0--3-4------------------------|

fig.2   In a flat Forty-One with my strat on the door
        we was goin' to the country for what we came for.
Fig.2   I'm sure you've smelled the trees in the air.
        The best of motor cruisin's just the joy to get there.

Fig.1 *1

Fig.2   I was approachin' Silverton down by the cotton gin.
        There was old man Berton trying to flag me in.
fig.2   He asked if I would stay awhile and if I needed gas.
        I said, "No thanks, anyhow I don't drive too fast."

Fig.1 *1

fig.3   Hallelujah, hallelujah, ride my Chevrolet.
Fig.2   Hallelujah, hallelujah, ride my Chevrolet.

Break
Fig.1 *2

fig.2   I took the road down to Cinco
        through that red Brazos River land,
fig.2   done hit that freeway at sunset.
        Now the big city lights are at hand.
Fig.1 *1
fig.3   Hallelujah, hallelujah, ride my Chevrolet.
Fig.2   Hallelujah, hallelujah, ride my Chevrolet.
Fig.1 *3
Tap to rate this tab
# A B C D E F G H I J K L M N O P Q R S T U V W X Y Z