Song name
# A B C D E F G H I J K L M N O P Q R S T U V W X Y Z

Zz Top - Wait In For The Bus tab

#
From: jhalonen@ix.netcom.com (John Halonen	)
Good Old Rocker From ZZ Top

Waitin For The Bus
-------------------------------------------------------------------------
<  = hammer on or pull off

Intro:
RIFF 1
E------------------|----------------|----------------|------------------|
B------------------|----------------|----------------|------------------|
G-----------------|------------5---|----------------|-------------5---|
D-7---5---7---5----|---7-7--5-----|-7--5---7---5-|--7-7---5-------|
A------------------|----------------|----------------|------------------|
E------------------|----------------|----------------|------------------|

Repeats
RIFF1
Have Mercy,         Been Waitin on the bus all day.

RIFF 2
E------------------|----------------|----------------|------------------|
B------------------|--------------6|----------------|---------------6--|
G---7--5---7--5-----|---7-7---5----|--7--5--7---5-|---7-7--5-------|
D------------------|----------------|----------------|------------------|
A------------------|----------------|----------------|------------------|
E------------------|----------------|----------------|------------------|

Repeat
RIFF 1

RIFF 3
E------------------|-----------------|---------------|-------------------|
B------------------|---------3------|----------------|------------------|
G------------------|------2---------|---------2-----|------------------|
D------------------|---0------------|------2--------|------------------|
A---2----------3--|-----------------|---0----------|---5<3----------|
E---0----3<5-----|----------------|---------------|-----------5--0--|
              
Repeat  Sequence

Before solo
E----------------------|----------------|----------------|------------------|
B----------------------|----------------|----------------|------------------|
G----------------------|----------------|----------------|-----------------|
D---5---5-----7----9-|----------------|----------------|------------------|
A---3---3-----5----7-|----------------|----------------|------------------|
E-----------------------|----------------|----------------|------------------|
Solo
End of Solo
E----------------------|----------------|----------------|------------------|
B----------------------|----------------|----------------|------------------|
G----------------------|----------------|----------------|-----------------|
D----------------------|----------------|----------------|------------------|
A---7-----5----4-----|----------------|----------------|------------------|
E----------------------|----------------|----------------|------------------|
Repeat Riff 1

E------------------|----------------|----------------|------------------|
B------------------|----------------|----------------|------------------|
G-----------------|------------5---|----------------|------------------|
D-7---5---7---5-----|---7-7--5-----|-7--5---7---5-|------------------|
A------------------|----------------|----------------|---3<0----------|
E------------------|----------------|----------------|-----------3--0--|
Goes into Jesus Just Left Chicago.
Tap to rate this tab
# A B C D E F G H I J K L M N O P Q R S T U V W X Y Z