A Day To Remember - Monument tab

-------------------------------------------------------------------------------
			  Monument - A Day To Remember
-------------------------------------------------------------------------------
Tabbed by: metalmonkey147
Email:

Tuning: Drop C

|------------------------------------------------------||------------------------------------------------------||-7--7--7--9--9--9--7--7--7--9--9--9--9--9--9--9-------||-10-10-10-10-10-10-10-10-10-10-10-10-10-10-10-10------||------------------------------------------------------||------------------------------------------------------|
|------------------------------------------------------||------------------------------------------------------||-7--7--7--9--9--9--7--7--7--9--9--9--9--9--9--7-------||-10-10-10-10-10-10-10-10-10-10-10-10-10-10-10-10------||------------------------------------------------------||------------------------------------------------------|
|--------------------------------------------------------------------||--------------------------------------------------------------------||-5-5-5-5-5-5-5-5-5-5-5-5-5-5-5-5-/7-7-7-7-7-7-7-7-7-7-7-7-7-7-7-7---||-3-3-3-3-3-3-3-3-3-3-3-3-3-3-3-3-/5-5-5-5-5-5-5-5-5-5-5-5-5-5-5-5---||-3-3-3-3-3-3-3-3-3-3-3-3-3-3-3-3-/5-5-5-5-5-5-5-5-5-5-5-5-5-5-5-5---||-3-3-3-3-3-3-3-3-3-3-3-3-3-3-3-3-/5-5-5-5-5-5-5-5-5-5-5-5-5-5-5-5---|
|---------------------------------------------------------------------------------------||---------------------------------------------------------------------------------------||-------9--9--9--------7-7-7-7-9--9--9--------------------------------------------------||-7-7-7-10-10-10-7-7-7-9-9-9-9-10-10-10-10-10----10-10----10-10----10-10----10-10-10-10-||-7-7-7----------7-7-7------------------10-10----10-10----10-10----10-10----10-10-10-10-||-7-7-7----------7-7-7------------------10-10-10-10-10-10-10-10-10-10-10-10-10-10-10-10-|
|--------------------------------------------------------------------||--------------------------------------------------------------------||-5-5-5-5-5-5-5-5-5-5-5-5-5-5-5-5-/7-7-7-7-7-7-7-7-7-7-7-7-7-7-7-7---||-3-3-3-3-3-3-3-3-3-3-3-3-3-3-3-3-/5-5-5-5-5-5-5-5-5-5-5-5-5-5-5-5---||-3-3-3-3-3-3-3-3-3-3-3-3-3-3-3-3-/5-5-5-5-5-5-5-5-5-5-5-5-5-5-5-5---||-3-3-3-3-3-3-3-3-3-3-3-3-3-3-3-3-/5-5-5-5-5-5-5-5-5-5-5-5-5-5-5-5---|
|---------------------------------------------------------------------------------------||---------------------------------------------------------------------------------------||-------9--9--9--------7-7-7-7-9--9--9--------------------------------------------------||-7-7-7-10-10-10-7-7-7-9-9-9-9-10-10-10-10-10----10-10----10-10----10-10----10-10-10-10-||-7-7-7----------7-7-7------------------10-10----10-10----10-10----10-10----10-10-10-10-||-7-7-7----------7-7-7------------------10-10-10-10-10-10-10-10-10-10-10-10-10-10-10-10-|
|---------------------------------------------------||---------------------------------------------------||---------------------------------------------------||---------------------------------------------------||-333-----333-----33333333-333-----333-----33333333-||-333-----333-----33333333-333-----333-----33333333-| ... ... ........ ... ... ........
|---------------------------------------------------||---------------------------------------------------||---------------------------------------------------||---------------------------------------------------||-777-----777-----77777777-777-----777--------------||-777-----777-----77777777-777-----777--------------| ... ... ........ ... ...
|------------------------------------------------------------------------------------||-------------------8---------------------------------------8------------------------||-------9----7h9------------9----7h9-9----------9----7h9------------9----7h9-9-------||-10-10---10-----10---10-10---10-------10-10-10---10-----10---10-10---10-------------||------------------------------------------------------------------------------------||------------------------------------------------------------------------------------| . . . . . . . . . . . . . . .
|------------------------------------------------------------------------------------||-------------------8---------------------------------------8------------------------||-------9----7h9------------9----7h9-9----------9----7h9------------9----7h9-9-------||-10-10---10-----10---10-10---10-------10-10-10---10-----10---10-10---10-------------||------------------------------------------------------------------------------------||------------------------------------------------------------------------------------| . . . . . . . . . . . . . . .
|--------------------------------------------------------------------||--------------------------------------------------------------------||-5-5-5-5-5-5-5-5-5-5-5-5-5-5-5-5-/7-7-7-7-7-7-7-7-7-7-7-7-7-7-7-7---||-3-3-3-3-3-3-3-3-3-3-3-3-3-3-3-3-/5-5-5-5-5-5-5-5-5-5-5-5-5-5-5-5---||-3-3-3-3-3-3-3-3-3-3-3-3-3-3-3-3-/5-5-5-5-5-5-5-5-5-5-5-5-5-5-5-5---||-3-3-3-3-3-3-3-3-3-3-3-3-3-3-3-3-/5-5-5-5-5-5-5-5-5-5-5-5-5-5-5-5---|
|---------------------------------------------------------------------------------------||---------------------------------------------------------------------------------------||-------9--9--9--------7-7-7-7-9--9--9--------------------------------------------------||-7-7-7-10-10-10-7-7-7-9-9-9-9-10-10-10-10-10----10-10----10-10----10-10----10-10-10-10-||-7-7-7----------7-7-7------------------10-10----10-10----10-10----10-10----10-10-10-10-||-7-7-7----------7-7-7------------------10-10-10-10-10-10-10-10-10-10-10-10-10-10-10-10-|
|--------------------------------------------------------------------||--------------------------------------------------------------------||-5-5-5-5-5-5-5-5-5-5-5-5-5-5-5-5-/7-7-7-7-7-7-7-7-7-7-7-7-7-7-7-7---||-3-3-3-3-3-3-3-3-3-3-3-3-3-3-3-3-/5-5-5-5-5-5-5-5-5-5-5-5-5-5-5-5---||-3-3-3-3-3-3-3-3-3-3-3-3-3-3-3-3-/5-5-5-5-5-5-5-5-5-5-5-5-5-5-5-5---||-3-3-3-3-3-3-3-3-3-3-3-3-3-3-3-3-/5-5-5-5-5-5-5-5-5-5-5-5-5-5-5-5---|
|---------------------------------------------------------------------------------------||---------------------------------------------------------------------------------------||-------9--9--9--------7-7-7-7-9--9--9--------------------------------------------------||-7-7-7-10-10-10-7-7-7-9-9-9-9-10-10-10-10-10----10-10----10-10----10-10----10-10-10-10-||-7-7-7----------7-7-7------------------10-10----10-10----10-10----10-10----10-10-10-10-||-7-7-7----------7-7-7------------------10-10-10-10-10-10-10-10-10-10-10-10-10-10-10-10-|
|------------------------------------------------------------------||------------------------------------------------------------------||------------------------------------------------------------------||-3--------(3)--------------(3)------3-3-3-3-----------------------||-3--------(3)--------------(3)------3-3-3-3-----------------------||-3--------(3)--------------(3)------3-3-3-3-----------------------|
. . . .|------------------------------------------------------------------||------------------------------------------------------------------||-------------------------------------5-----5---5-----5-----5---5--||-----5-----5---5-----5-------5-------5-----5---5-----5-----5---5--| x3|-3-3-3-3-3-3-3-3-3-3-3-3-3-3-3-3-7-7---7-7---7---7-7---7-7---7----||-3-3---3-3---3---3-3---3-3-3---3-7-7---7-7---7---7-7---7-7---7----| . . . . . . . . . . . . . . . . . . . . .
|------------------------------------------------------------------||------------------------------------------------------------------||-------------------------------------5-----5---5-----5-----5-5-5--||-----5-----5---5-----5-------5-------5-----5---5-----5-----5-5-5--||-3-3-3-3-3-3-3-3-3-3-3-3-3-3-3-3-7-7---7-7---7---7-7---7-7--------||-3-3---3-3---3---3-3---3-3-3---3-7-7---7-7---7---7-7---7-7--------| . . . . . . . . . . . . . . . . . . . .
|--------------------------------------------------------------------||--------------------------------------------------------------------||-5-5-5-5-5-5-5-5-5-5-5-5-5-5-5-5-/7-7-7-7-7-7-7-7-7-7-7-7-7-7-7-7---||-3-3-3-3-3-3-3-3-3-3-3-3-3-3-3-3-/5-5-5-5-5-5-5-5-5-5-5-5-5-5-5-5---||-3-3-3-3-3-3-3-3-3-3-3-3-3-3-3-3-/5-5-5-5-5-5-5-5-5-5-5-5-5-5-5-5---||-3-3-3-3-3-3-3-3-3-3-3-3-3-3-3-3-/5-5-5-5-5-5-5-5-5-5-5-5-5-5-5-5---|
|---------------------------------------------------------------------------------------||---------------------------------------------------------------------------------------||-------9--9--9--------7-7-7-7-9--9--9--------------------------------------------------||-7-7-7-10-10-10-7-7-7-9-9-9-9-10-10-10-10-10----10-10----10-10----10-10----10-10-10-10-||-7-7-7----------7-7-7------------------10-10----10-10----10-10----10-10----10-10-10-10-||-7-7-7----------7-7-7------------------10-10-10-10-10-10-10-10-10-10-10-10-10-10-10-10-|
|--------------------------------------------------------------------||--------------------------------------------------------------------||-5-5-5-5-5-5-5-5-5-5-5-5-5-5-5-5-/7-7-7-7-7-7-7-7-7-7-7-7-7-7-7-7---||-3-3-3-3-3-3-3-3-3-3-3-3-3-3-3-3-/5-5-5-5-5-5-5-5-5-5-5-5-5-5-5-5---||-3-3-3-3-3-3-3-3-3-3-3-3-3-3-3-3-/5-5-5-5-5-5-5-5-5-5-5-5-5-5-5-5---||-3-3-3-3-3-3-3-3-3-3-3-3-3-3-3-3-/5-5-5-5-5-5-5-5-5-5-5-5-5-5-5-5---|
|---------------------------------------------------------------------------------------||---------------------------------------------------------------------------------------||-------9--9--9--------7-7-7-7-9--9--9--------------------------------------------------||-7-7-7-10-10-10-7-7-7-9-9-9-9-10-10-10-10-10----10-10----10-10----10-10----10-10-10-10-||-7-7-7----------7-7-7------------------10-10----10-10----10-10----10-10----10-10-10-10-||-7-7-7----------7-7-7------------------10-10-10-10-10-10-10-10-10-10-10-10-10-10-10-10-|
|---------------------------------------------------------------------------||---------------------------------------------------------------------------||-7------------(7)-----------------(7)--------------------------------------||-5------------(5)-----------------(5)--------------------------------------||---------------------------------------------------------------------------||---------------------------------------------------------------------------|
|-----------------------------------------------||-----------------------------------------------||-----------------------------------------------||-10-10-10-10-10-10-10-10-10-12-12-12-12-9-9-9--| x3|-----------------------------------------------||-----------------------------------------------| . . . . . . . . . . . . . . . .
|--------------------------------------------------||--------------------------------------------------||--------------------------------------------------||-10-10-10-10-10-10-10-10-10-12-12-12-12-14-14-14--||--------------------------------------------------||--------------------------------------------------| . . . . . . . . . . . .
|--------------------------------------------------||--------------------------------------------------||----------12----------------12--------------------||-12-10-10----10-10-12-10-10----10-10-12-14-12-9---||--------------------------------------------------||--------------------------------------------------|
|--------------------------------------------------||--------------------------------------------------||----------12----------------12--------------------||-12-10-10----10-10-12-10-10----10-10-12-14-12-9---||--------------------------------------------------||--------------------------------------------------|
|--------------------------------------------------||--------------------------------------------------||----------12----------------12--------------------||-12-10-10----10-10-12-10-10----10-10-12-14-12-10--||--------------------------------------------------||--------------------------------------------------|
|--------------------------------------------------||--------------------------------------------------||----------12----------------12--------------------||-12-9--9-----9--9--12-9--9-----9--9--12-14-12-10--||--------------------------------------------------||--------------------------------------------------|
|--------------------------------------------------||--------------------------------------------------||----------12----------------12--------------------||-12-10-10----10-10-12-10-10----10-10-12-14-12-9---||--------------------------------------------------||--------------------------------------------------|
|--------------------------------------------------||--------------------------------------------------||----------12----------------12--------------------||-12-10-10----10-10-12-10-10----10-10-12-14-12-9---||--------------------------------------------------||--------------------------------------------------|
|--------------------------------------------------||--------------------------------------------------||----------12----------------12--------------------||-12-10-10----10-10-12-10-10----10-10-12-14-12-10--||--------------------------------------------------||--------------------------------------------------|
|--------------------------------------------------||--------------------------------------------------||----------12----------------12--------------------||-12-9--9-----9--9--12-9--9-----9--9--12-14-12-10--||--------------------------------------------------||--------------------------------------------------|
|--------------------------------------------------------||--------------------------------------------------------||--------------------------------------------------------||-777-----777-----7/9-9----101010-----101010-------------||-555-----555-----5/7-9----8-8-8------8-8-8-------17\\---||-------------------------------------------------17\\---| ... ... . . . . . .
|-------------------------------------------------------------------||-------------------------------------------------------------------||-------------------------------------------------------------------||-7-7-7-7-7-7-7-7-7-7-7-7-7-7-7-7-5-5-5-5-5-5-5-5-5-5-5-5-5-5-5-5---||-7-7-7-7-7-7-7-7-7-7-7-7-7-7-7-7-5-5-5-5-5-5-5-5-5-5-5-5-5-5-5-5---||-7-7-7-7-7-7-7-7-7-7-7-7-7-7-7-7-5-5-5-5-5-5-5-5-5-5-5-5-5-5-5-5---|
|--------------------------------------------------------||--------------------------------------------------------||--------------------------------------------------------||-777-----777-----7/9-9----101010-----101010-------------||-555-----555-----5/7-9----8-8-8------8-8-8-------17\\---||-------------------------------------------------17\\---| ... ... . . . . . .
|-------------------------------------------------------------------||-------------------------------------------------------------------||-------------------------------------------------------------------||-7-7-7-7-7-7-7-7-7-7-7-7-7-7-7-7-5-5-5-5-5-5-5-5-5-5-5-5-5-5-5-5---||-7-7-7-7-7-7-7-7-7-7-7-7-7-7-7-7-5-5-5-5-5-5-5-5-5-5-5-5-5-5-5-5---||-7-7-7-7-7-7-7-7-7-7-7-7-7-7-7-7-5-5-5-5-5-5-5-5-5-5-5-5-5-5-5-5---|
|----------------------------------------------------------||----------------------------------------------------------||-7--------------------/9-------------/10------------------||-7--------------------/9-------------/10------------------||-5--------------------/7-------------/8-------------------||----------------------------------------------------------|
|----------------------------------------------------------||----------------------------------------------------------||-9-----------------------7--------------------------------||-9-----------------------7--------------------------------||-7-----------------------5--------------------------------||-7-----------------------5--------------------------------|
|----------------------------------------------------------||----------------------------------------------------------||-5--------------------------------------------------------||-5--------------------------------------------------------||-3--------------------------------------------------------||-3--------------------------------------------------------|
************************************ | . palm mute | / slide up | \ slide down | h hammer-on | p pull-off | ~ vibrato | * harmonic | x Mute note | b Bend | pb Pre-bend | br Bend release | pbr Pre-bend release | brb Bend release bend ************************************
Tap to rate this tab
 
# A B C D E F G H I J K L M N O P Q R S T U V W X Y Z