A Day To Remember - Danger In Starting A Fire tab

-------------------------------------------------------------------------------
		The Danger In Starting a Fire - A Day To Remember
-------------------------------------------------------------------------------
Tabbed by: metalmonkey147
Email:

Tuning: Drop C

|---------------------------------------------------------------------------||-----8---8h10-----8---8h10--------------8---8h10-----8---8h10--------------||---7------------7---------------------7------------7-----------------------||-0-----0------0-----0---------------0-----0------0-----0-------X-X-X-------||---------------------------------------------------------------X-X-X-------||---------------------------------------------------------------X-X-X-------| . . . . . . . .
|--------------------------------------------------------------------||--------------------------------------------------------------------||--------------------------------------------------------------------||-5-5-5-5-5-5-5-5-5-5-5-5-5-5-5-5-8-8-8-8-8-8-8-8-8-8-8-8-8-8-8-8----||-5-5-5-5-5-5-5-5-5-5-5-5-5-5-5-5-8-8-8-8-8-8-8-8-8-8-8-8-8-8-8-8----||-5-5-5-5-5-5-5-5-5-5-5-5-5-5-5-5-8-8-8-8-8-8-8-8-8-8-8-8-8-8-8-8----|
|--------------------------------------------------------------------||--------------------------------------------------------------------||--------------------------------------------------------------------||-0-0-0-0-0-0-0-0-0-0-0-0-0-0-0-0-3-3-3-3-3-3-3-3-3-3-3-3-3-3-3-3----||-0-0-0-0-0-0-0-0-0-0-0-0-0-0-0-0-3-3-3-3-3-3-3-3-3-3-3-3-3-3-3-3----||-0-0-0-0-0-0-0-0-0-0-0-0-0-0-0-0-3-3-3-3-3-3-3-3-3-3-3-3-3-3-3-3----|
|--------------------------------------------------------------------||--------------------------------------------------------------------||--------------------------------------------------------------------||-5-5-5-5-5-5-5-5-5-5-5-5-5-5-5-5-8-8-8-8-8-8-8-8-8-8-8-8-8-8-8-8----||-5-5-5-5-5-5-5-5-5-5-5-5-5-5-5-5-8-8-8-8-8-8-8-8-8-8-8-8-8-8-8-8----||-5-5-5-5-5-5-5-5-5-5-5-5-5-5-5-5-8-8-8-8-8-8-8-8-8-8-8-8-8-8-8-8----|
|--------------------------------------------------------------------||--------------------------------------------------------------------||--------------------------------------------------------------------||-0-0-0-0-0-0-0-0-0-0-0-0-0-0-0-0-3-3-3-3-3-3-3-3-3-3-3-3-3-3-3-3----||-0-0-0-0-0-0-0-0-0-0-0-0-0-0-0-0-3-3-3-3-3-3-3-3-3-3-3-3-3-3-3-3----||-0-0-0-0-0-0-0-0-0-0-0-0-0-0-0-0-3-3-3-3-3-3-3-3-3-3-3-3-3-3-3-3----|
|--------------------------------------------------------------------||--------------------------------------------------------------------||-7-7-7-7-7-7-7-7-7-7-7-7-7-7-7/10--101010101010101010101010101010---||-X-X-X-X-X-X-X-X-X-X-X-X-X-X-X/X---X-X-X-X-X-X-X-X-X-X-X-X-X-X-X----||-5-5-5-5-5-5-5-5-5-5-5-5-5-3-3/8---8-8-8-8-8-8-8-8-8-8-8-8-8-8-8----||--------------------------------------------------------------------|
|---------------------------------------------------------------------||---------------------------------------------------------------------||---------------------------------------------------------------------||---------------------------------------------------------------------||-0-0-8---7-3---0-------8---7-3-----0-0-8---7-3---0-------8---7-3-----||-0-0---0-----0-0-----0---0---------0-0---0-----0-0-----0---0---------| . . . . . . . . . . . .
|--------------------------------------------------------------------||--------------------------------------------------------------------||-7-7-7-7-7-7-7-7-7-7-7-7-7-7-7/10--101010101010101010101010101010---||-X-X-X-X-X-X-X-X-X-X-X-X-X-X-X/X---X-X-X-X-X-X-X-X-X-X-X-X-X-X-X----||-5-5-5-5-5-5-5-5-5-5-5-5-5-3-3/8---8-8-8-8-8-8-8-8-8-8-8-8-8-8-8----||--------------------------------------------------------------------|
|---------------------------------------------------------------------||---------------------------------------------------------------------||---------------------------------------------------------------------||---------------------------------------------------------------------||-0-0-8---7-3---0-------8---7-3-----0-0-8---7-3---0-------8---7-3-----||-0-0---0-----0-0-----0---0---------0-0---0-----0-0-----0---0---------| . . . . . . . . . . . .
|---------------------------------------------------------------------||---------------------------------------------------------------------||-----------------------------------------------------------5b--------||---------------------------------------------------------------------||-0-0-8---7-3---0-------8---7-3-----0-0-8---7-3-----0-----------------||-0-0---0-----0-0-----0---0---------0-0---0---------0-----------------| . . . . . . . . . *
|---------------------------------------------------------------------||---------------------------------------------------------------------||---------------------------------------------------------------------||---------------------------------------------------------------------||-0-0-8---7-3---0-------8---7-3-----0-0-8---7-3---0-------8---7-3-----||-0-0---0-----0-0-----0---0---------0-0---0-----0-0-----0---0---------| . . . . . . . . . . . .
|---------------------------------------------------------------------||---------------------------------------------------------------------||---------------------------------------------------------------------||---------------------------------------------------------------------||-0-0-8---7-3---0-------8---7-3-----0-0-8---7-3---0-------8---7-3-----||-0-0---0-----0-0-----0---0---------0-0---0-----0-0-----0---0---------| . . . . . . . . . . . .
|-----------------------------------------------------------||-----------------------------------------------------------||-----------------------------------------------------------||-0-0-0-----0---0---0-0---------0-0-0-----0---0---0-0-------||-0-0-0-----0---0---0-0---------0-0-0-----0---0---0-0-------||-0-0-0-----0---0---0-0---------0-0-0-----0---0---0-0-------| . . . . . . . . . . . . . .
|-----------------------------------------------------------------||-----------------------------------------------------------------||-----------------------------------------------------------------||-000-000-0-0-----0---0---0-0---------0-0-0-----0---0---0-0-------||-000-000-0-0-----0---0---0-0---------0-0-0-----0---0---0-0-------||-000-000-0-0-----0---0---0-0---------0-0-0-----0---0---0-0-------| ... ... . . . . . . . . . . . . .
|----------------------------||----------------------------||----------------------------||-0-0-0-----0---0---0-0------||-0-0-0-----0---0---0-0------||-0-0-0-----0---0---0-0------| . . . . . . .
|-----------------------------------------------------------||-----------------------------------------------------------||-----------------------------------------------------------||-0-0-0-----0---0---0-0---------0-0-0-----0---0---0-0-------||-0-0-0-----0---0---0-0---------0-0-0-----0---0---0-0-------||-0-0-0-----0---0---0-0---------0-0-0-----0---0---0-0-------| + + + + + + + + + + + + + +
|-----------------------------------------------------------||-----------------------------------------------------------||-----------------------------------------------------------||-0-0-0-----0---0---0-0---------0-0-0-----0---0---0-0-------||-0-0-0-----0---0---0-0---------0-0-0-----0---0---0-0-------||-0-0-0-----0---0---0-0---------0-0-0-----0---0---0-0-------| + + + + + + + + + + + + + +
|----------------------------||----------------------------||----------------------------||-0-0-0-----0---0---0-0------||-0-0-0-----0---0---0-0------||-0-0-0-----0---0---0-0------| . . . . . . .
|---------------------------------------------------------------------------||-----8---8h10-----8---8h10-----8h10-----8---8h10-----8---8h10--------------||---7------------7------------7--------7------------7-----------------------||-0-----0------0-----0------0--------0-----0------0-----0-------X-X-X-------||---------------------------------------------------------------X-X-X-------||---------------------------------------------------------------X-X-X-------| . . . . . . . . .
|--------------------------------------------------------------------||--------------------------------------------------------------------||--------------------------------------------------------------------||-5-5-5-5-5-5-5-5-5-5-5-5-5-5-5-5-8-8-8-8-8-8-8-8-8-8-8-8-8-8-8-8----||-5-5-5-5-5-5-5-5-5-5-5-5-5-5-5-5-8-8-8-8-8-8-8-8-8-8-8-8-8-8-8-8----||-5-5-5-5-5-5-5-5-5-5-5-5-5-5-5-5-8-8-8-8-8-8-8-8-8-8-8-8-8-8-8-8----|
|--------------------------------------------------------------------||--------------------------------------------------------------------||--------------------------------------------------------------------||-0-0-0-0-0-0-0-0-0-0-0-0-0-0-0-0-3-3-3-3-3-3-3-3-3-3-3-3-3-3-3-3----||-0-0-0-0-0-0-0-0-0-0-0-0-0-0-0-0-3-3-3-3-3-3-3-3-3-3-3-3-3-3-3-3----||-0-0-0-0-0-0-0-0-0-0-0-0-0-0-0-0-3-3-3-3-3-3-3-3-3-3-3-3-3-3-3-3----|
|--------------------------------------------------------------------||--------------------------------------------------------------------||--------------------------------------------------------------------||-5-5-5-5-5-5-5-5-5-5-5-5-5-5-5-5-8-8-8-8-8-8-8-8-8-8-8-8-8-8-8-8----||-5-5-5-5-5-5-5-5-5-5-5-5-5-5-5-5-8-8-8-8-8-8-8-8-8-8-8-8-8-8-8-8----||-5-5-5-5-5-5-5-5-5-5-5-5-5-5-5-5-8-8-8-8-8-8-8-8-8-8-8-8-8-8-8-8----|
|--------------------------------------------------------------------||--------------------------------------------------------------------||--------------------------------------------------------------------||-0-0-0-0-0-0-0-0-0-0-0-0-0-0-0-0-3-3-3-3-3-3-3-3-3-3-3-3-3-3-3-3----||-0-0-0-0-0-0-0-0-0-0-0-0-0-0-0-0-3-3-3-3-3-3-3-3-3-3-3-3-3-3-3-3----||-0-0-0-0-0-0-0-0-0-0-0-0-0-0-0-0-3-3-3-3-3-3-3-3-3-3-3-3-3-3-3-3----|
|--------------------------------------------------------------------||--------------------------------------------------------------------||-7-7-7-7-7-7-7-7-7-7-7-7-7-7-7/10--101010101010101010101010101010---||-X-X-X-X-X-X-X-X-X-X-X-X-X-X-X/X---X-X-X-X-X-X-X-X-X-X-X-X-X-X-X----||-5-5-5-5-5-5-5-5-5-5-5-5-5-3-3/8---8-8-8-8-8-8-8-8-8-8-8-8-8-8-8----||--------------------------------------------------------------------|
|---------------------------------------------------------------------||---------------------------------------------------------------------||---------------------------------------------------------------------||---------------------------------------------------------------------||-0-0-8---7-3---0-------8---7-3-----0-0-8---7-3---0-------8---7-3-----||-0-0---0-----0-0-----0---0---------0-0---0-----0-0-----0---0---------| . . . . . . . . . . . .
|--------------------------------------------------------------------||--------------------------------------------------------------------||-7-7-7-7-7-7-7-7-7-7-7-7-7-7-7/10--101010101010101010101010101010---||-X-X-X-X-X-X-X-X-X-X-X-X-X-X-X/X---X-X-X-X-X-X-X-X-X-X-X-X-X-X-X----||-5-5-5-5-5-5-5-5-5-5-5-5-5-3-3/8---8-8-8-8-8-8-8-8-8-8-8-8-8-8-8----||--------------------------------------------------------------------|
|---------------------------------------------------------------------||---------------------------------------------------------------------||---------------------------------------------------------------------||---------------------------------------------------------------------||-0-0-8---7-3---0-------8---7-3-----0-0-8---7-3---0-------8---7-3-----||-0-0---0-----0-0-----0---0---------0-0---0-----0-0-----0---0---------| . . . . . . . . . . . .
|----------------------------||----------------------------||----------------------------||-0-0-0-----0---0---0-0------||-0-0-0-----0---0---0-0------||-0-0-0-----0---0---0-0------| . . . . . . .
|-----------------------------------------------------------||-----------------------------------------------------------||-----------------------------------------------------------||-0-0-0-----0---0---0-0---------0-0-0-----0---0---0-0-------||-0-0-0-----0---0---0-0---------0-0-0-----0---0---0-0-------||-0-0-0-----0---0---0-0---------0-0-0-----0---0---0-0-------| + + + + + + + + + + + + + +
|-----------------------------------------------------------||-----------------------------------------------------------||-----------------------------------------------------------||-0-0-0-----0---0---0-0---------0-0-0-----0---0---0-0-------||-0-0-0-----0---0---0-0---------0-0-0-----0---0---0-0-------||-0-0-0-----0---0---0-0---------0-0-0-----0---0---0-0-------| + + + + + + + + + + + + + +
|----------------------------||----------------------------||----------------------------||-0-0-0-----0---0---0-0------||-0-0-0-----0---0---0-0------||-0-0-0-----0---0---0-0------| . . . . . . .
|--------------------------------------||--------------------------------------||--10----------------------------------||--10----------------------------------||--8-----------------------------------||--8-----------------------------------|
(2:40)|-------10-------------------------------------||-------14-------------------------------------||----------------------------------------------||-0-0-0----0-0--------------0-000---0000000-0--||-0-0-0----0-0--------------0-000---0000000-0--||-0-0-0----0-0--------------0-000---0000000-0--| . . . . . . +++ ++++++. .
|-------10-------------------------------------||-------14-------------------------------------||----------------------------------------------||-0-0-0----0-0--------------0-000---0000000-0--||-0-0-0----0-0--------------0-000---0000000-0--||-0-0-0----0-0--------------0-000---0000000-0--| . . . . . . +++ ++++++. .
|-------10-------------------------------------||-------14-------------------------------------||----------------------------------------------||-0-0-0----0-0--------------0-000---0000000-0--||-0-0-0----0-0--------------0-000---0000000-0--||-0-0-0----0-0--------------0-000---0000000-0--| . . . . . . +++ ++++++. .
|-------10-------------------------------------||-------14-------------------------------------||----------------------------------------------||-0-0-0----0-0--------------0-000---0000000-0--||-0-0-0----0-0--------------0-000---0000000-0--||-0-0-0----0-0--------------0-000---0000000-0--| . . . . . . +++ ++++++. .
|-------10--------||-------14--------||-----------------||-0-0-0----0-0----||-0-0-0----0-0----||-0-0-0----0-0----| . . . . .
************************************ | . palm mute | + palm mute (let ring) | / slide up | \ slide down | h hammer-on | p pull-off | ~ vibrato | * harmonic | x Mute note | b Bend | pb Pre-bend | br Bend release | pbr Pre-bend release | brb Bend release bend ************************************
Tap to rate this tab
 
# A B C D E F G H I J K L M N O P Q R S T U V W X Y Z