A Day To Remember - Sticks And Bricks tab version 2

Sticks & Bricks by A Day To Remember

Tuning: Drop B

Intro|------------------------------------------||------------------------------------------||------------------------------------------||------------------------------------------||-0-------1--1-------0--1--0-------------0-||-0-------1--1-------0--1--0--0--0-0-0-0-0-|
|---------------------------------------------||---------------------------------------------||---------------------------------------------||---------------------------------------------||-1--0-----------------0--1--0--------------0-||-1--0--0-0-0--0-0-0---0--1--0---0--0-0-0-0-0-|
|----------------------------------------------||----------------------------------------------||----------------------------------------------||----------------------------------------------||-4-4-4-4-1-1-1---0--1--0--------------0--1--0-||-4-4-4-4-1-1-1---0--1--0---0--0-0-0-0-0--1--0-|
|------------------------------------------------------||------------------------------------------------------||------------------------------------------------------||------------------------------------------------------||----------------0--1--0--------------0--4-4-4-4-1-1-1-||-0-0-0--0-0-0---0--1--0---0--0-0-0-0-0--4-4-4-4-1-1-1-|
Verse|--------------------------------------------------||--------------------------------------------------||--------------------------------------------------||--------------------------------------------------||------------------1-----0-----1-----0-----1--4--1-||-0-0-0--0-0-0--0--1--0--0--0--1--0--0--0--1--4--1-|
|-------------------------------------------------||-------------------------------------------------||-------------------------------------------------||-------------------------------------------------||------------------1-----0-------------1--4--4--4-||-0-0-0--0-0-0--0--1--0--0---0--1-1-1--1--4--4--4-|
|--------------------------------------------------||--------------------------------------------------||--------------------------------------------------||--------------------------------------------------||------------------1-----0-----1-----0-----1--4--1-||-0-0-0--0-0-0--0--1--0--0--0--1--0--0--0--1--4--1-|
|-------------------------------------------------||-------------------------------------------------||-------------------------------------------------||-------------------------------------------------||------------------1-----0-------------1--4--4--4-||-0-0-0--0-0-0--0--1--0--0---0--1-1-1--1--4--4--4-|
Pre-Chorus|--------------------------------------------||--------------------------------------------||--------------------------------------------||--------------------------------------------||--------------------------------------------||-0-0-0-0-0--0-0-0-0-0--0-0-0-0-0--0-0-0-0-0-|
|------------------------------------------------||------------------------------------------------||------------------------------------------------||------------------------------------------------||------------------------------------------------||-0-0-0-0-0-0-0-0--0-0-0-0-0--0-0-0-0-0--0-0-0-0-|
|-----------------------------------------------------||-----------------------------------------------------||-----------------------------------------------------||-----------------------------------------------------||-----------------------------------------------------||-0--0-0-0-0-0--0-0-0-0-0-0-0-0--4-4-4-4-4--4-4-4-4-4-|
|---------------------------------------------------||---------------------------------------------------||---------------------------------------------------||---------------------------------------------------||---------------------------------------------------||-4-4-4-4--4--4-4-4-4-4--4-4-4-4-4-4-4-4--7-7-7-7-7-|
|--------------------------------------------------||--------------------------------------------------||--------------------------------------------------||--------------------------------------------------||--------------------------------------------------||-7-7-7-7-7--7-7-7-7-7--7-7-7-7-7--7-7-7-7-7-7-7-7-|
Chorus|---------------------------------------------------||---------------------------------------------------||---------------------------------------------------||---------------------------------------------------||-12--12--7---7-8---8-8--8-8-8-8---15--15-15--15-10-||-12--12--7---7-8---8-8--8-8-8-8---15--15-15--15-10-|
|------------------------------------------------------||------------------------------------------------------||------------------------------------------------------||------------------------------------------------------||-10-10-10-10-10-10-10--12--12--7---7-8---8-8-8-8---15-||-10-10-10-10-10-10-10--12--12--7---7-8---8-8-8-8---15-|
|-------------------------------------||-------------------------------------||-------------------------------------||-------------------------------------||-15-15--15-10---10-10-10-10-10-10-10-||-15-15--15-10---10-10-10-10-10-10-10-|
Verse|-----------------------------------------------------||-----------------------------------------------------||-----------------------------------------------------||-----------------------------------------------------||-0--1--0--------------0--1--0----------------0--1--0-||-0--1--0---0--0-0-0-0-0--------0-0-0--0-0-0--0--1--0-|
|------------------------------------------------------||------------------------------------------------------||------------------------------------------------------||------------------------------------------------------||------------0---4-4-4-4-1-1-1---0--1--0-------------0-||-0--0-0-0-0-0---4-4-4-4-1-1-1---0--1--0--0--0-0-0-0-0-|
|---------------------------------------------||---------------------------------------------||---------------------------------------------||---------------------------------------------||-1--0-----------------0--1--0--------------0-||-1--0--0-0-0--0-0-0---0--1--0---0--0-0-0-0-0-|
|-----------------------------------------||-----------------------------------------||-----------------------------------------||-----------------------------------------||-4-4-4-4-1-1-1-------------------1-----0-||-4-4-4-4-1-1-1--0-0-0--0-0-0--0--1--0--0-|
|--------------------------------------------------||--------------------------------------------------||--------------------------------------------------||--------------------------------------------------||----1-----0-----1--4--1-------------------1-----0-||-0--1--0--0--0--1--4--1--0-0-0--0-0-0--0--1--0--0-|
|------------------------------------------------------||------------------------------------------------------||------------------------------------------------------||------------------------------------------------------||-----------1--4--4--4-------------------1-----0-----1-||-0--1-1-1--1--4--4--4--0-0-0--0-0-0--0--1--0--0--0--1-|
|--------------------------------------------------------||--------------------------------------------------------||--------------------------------------------------------||--------------------------------------------------------||----0-----1--4--1-------------------1-----0-----------3-||-0--0--0--1--4--1--0-0-0--0-0-0--0--1--0--0--0--1-1-1---|
Chorus|------------------------------------------------------||------------------------------------------------------||------------------------------------------------------||------------------------------------------------------||-12--12--7---7-8---8--8---8-8-8-8---15--15-15--15--10-||-12--12--7---7-8---8--8---8-8-8-8---15--15-15--15--10-|
|-----------------------------------------------||-----------------------------------------------||-----------------------------------------------||-----------------------------------------------||-10-10-10-10-10-10-10---12--12--7---7-8---8--8-||-10-10-10-10-10-10-10---12--12--7---7-8---8--8-|
|----------------------------------------------------||----------------------------------------------------||----------------------------------------------------||----------------------------------------------------||-8-8-8-8---15--15-15--15--10---10-10-10-10-10-10-10-||-8-8-8-8---15--15-15--15--10---10-10-10-10-10-10-10-|
|-----------------------------------------------------||-----------------------------------------------------||-----------------------------------------------------||-----------------------------------------------------||-12--12--7---7-8---8--8---8-8-8-8---15--15-15--15-10-||-12--12--7---7-8---8--8---8-8-8-8---15--15-15--15-10-|
|-----------------------------------------------||-----------------------------------------------||-----------------------------------------------||-----------------------------------------------||-10-10-10-10-10-10-10---12--12--7---7-8---8--8-||-10-10-10-10-10-10-10---12--12--7---7-8---8--8-|
|--------------------------------------------------||--------------------------------------------------||--------------------------------------------------||--------------------------------------------------||-8-8-8-8---15--15-15--15-10--10-10-10-10-10-10-10-||-8-8-8-8---15--15-15--15-10--10-10-10-10-10-10-10-|
|----------------------------------------------------||----------------------------------------------------||----------------------------------------------------||----------------------------------------------------||-12--12--7---7-8---8--8--8-8-8-8---15--15-15--15-10-||-12--12--7---7-8---8--8--8-8-8-8---15--15-15--15-10-|
|-------------------------------------------------------||-------------------------------------------------------||-------------------------------------------------------||-------------------------------------------------------||-10-10-10-10-10-10-10---12--12--7--7-8---8--8--8-8-8-8-||-10-10-10-10-10-10-10---12--12--7--7-8---8--8--8-8-8-8-|
|----------------------------------------------------||----------------------------------------------------||----------------------------------------------------||----------------------------------------------------||-15--15-15--15--10--10-10-10-10-10-10-10--12--12--7-||-15--15-15--15--10--10-10-10-10-10-10-10--12--12--7-|
|----------------------------------------||----------------------------------------||----------------------------------------||----------------------------------------||-7-8---8--8--8-8-8-8---15--15-15--15-10-||-7-8---8--8--8-8-8-8---15--15-15--15-10-|
|-------------------------||-------------------------||-------------------------||-------------------------||-10-10-10-10-10-10-10--0-||-10-10-10-10-10-10-10--0-|
Breakdown|-------------------------------------------------||-------------------------------------------------||-------------------------------------------------||-------------------------------------------------||-4--1-----0-----1--4--1---1--0-------------------||-4--1--0--0--0--1--4--1---1--0---0-0-0-0-0-0-0-0-|
|---------------------------------------------------||---------------------------------------------------||---------------------------------------------------||---------------------------------------------------||-------------------------------------------------1-||-1--0---0-0-0-0-0-0-0-0--1--0---0-0-0-0-0-0-0-0--1-|
|---------------------------------------------------||---------------------------------------------------||---------------------------------------------------||---------------------------------------------------||-4--1--0--------------------1--0-------------------||-4--1--0---0-0-0-0-0-0-0-0--1--0---0-0-0-0-0-0-0-0-|
|-------------------------------------------------------||-------------------------------------------------------||-------------------------------------------------------||-------------------------------------------------------||-1--0--------------------4--1-----0-----1--4--1---1--0-||-1--0---0-0-0-0-0-0-0-0--4--1--0--0--0--1--4--1---1--0-|
|-----------------------------------------------||-----------------------------------------------||-----------------------------------------------||-----------------------------------------------||------------------1--0--------------------1--0-||-0-0-0-0-0-0-0-0--1--0---0-0-0-0-0-0-0-0--1--0-|
|-----------------------------------------||-----------------------------------------||-----------------------------------------||-----------------------------------------||------------------1--0-------------------||-0-0-0-0-0-0-0-0--1--0---0-0-0-0-0-0-0-0-|
|-------------------------------------------------||-------------------------------------------------||-------------------------------------------------||-------------------------------------------------||-4--1-----0-----1--4--1---1--0-------------------||-4--1--0--0--0--1--4--1---1--0---0-0-0-0-0-0-0-0-|
|---------------------------------------------------------||---------------------------------------------------------||---------------------------------------------------------||---------------------------------------------------------||-1--0-------------------1--0-------------------4-4-4-4-4-||-1--0--0-0-0-0-0-0-0-0--1--0--0-0-0-0-0-0-0-0--4-4-4-4-4-|
Chorus|---------------------------------------------------||---------------------------------------------------||---------------------------------------------------||---------------------------------------------------||-12--12--7---7-8---8-8--8-8-8-8---15--15-15--15-10-||-12--12--7---7-8---8-8--8-8-8-8---15--15-15--15-10-|
|------------------------------------------------------||------------------------------------------------------||------------------------------------------------------||------------------------------------------------------||-10-10-10-10-10-10-10--12--12--7---7-8---8-8-8-8---15-||-10-10-10-10-10-10-10--12--12--7---7-8---8-8-8-8---15-|
|-------------------------------------||-------------------------------------||-------------------------------------||-------------------------------------||-15-15--15-10---10-10-10-10-10-10-10-||-15-15--15-10---10-10-10-10-10-10-10-|
|-----------------------------------------------------||-----------------------------------------------------||-----------------------------------------------------||-----------------------------------------------------||-0--1--0--------------0---1--0------------------0--1-||-0--1--0---0--0-0-0-0-0---1--0---0-0-0--0-0-0---0--1-|
Outro|----------------------------------||----------------------------------||----------------------------------||----------------------------------||-0--------------0---4-4-4-4-1-1-1-||-0---0--0-0-0-0-0---4-4-4-4-1-1-1-|
Tap to rate this tab
 
# A B C D E F G H I J K L M N O P Q R S T U V W X Y Z