A Day To Remember - You Be Tails Ill Be Sonic tab version 1

You Be Tails, I'll Be Sonic by A Day To Remember

Tuning: Drop B [B-F#-B-E-G#-C#]

Intro - Start at 0:06|------------------------------------------------------------------||------------------------------------------------------------------||------------------------------------------------------------------||------------------------------------------------------------------||-0-0-0---0---0-0-0---0---0-0-0----0---0-0-0---0---0-0-0-0-0-0-0-0-||-0-0-0---0---0-0-0---0---0-0-0----0---0-0-0---0---0-0-0-0-0-0-0-0-|
|----------------------------------------------------------------||----------------------------------------------------------------||----------------------------------------------------------------||----------------------------------------------------------------||-0-0-0---0---0-0-0---0---0-0-0----0-0-8---8---0-0-7---7---0-0-7-||-0-0-0---0---0-0-0---0---0-0-0----0-0-8---8---0-0-7---7---0-0-7-|
|-----------------------------------------------------------------||-----------------------------------------------------------------||-----------------------------------------------------------------||-----------------------------------------------------------------||-0-0-0---0---0-0-0---0---0-0-0---0---0-0-0---0---0-0-0-0-0-0-0-0-||-0-0-0---0---0-0-0---0---0-0-0---0---0-0-0---0---0-0-0-0-0-0-0-0-|
|----------------------------------------------------------------||----------------------------------------------------------------||----------------------------------------------------------------||----------------------------------------------------------------||-0-0-0---0---0-0-0---0---0-0-0----0-0-8---8---0-0-7---7---0-0-7-||-0-0-0---0---0-0-0---0---0-0-0----0-0-8---8---0-0-7---7---0-0-7-|
|------------------------------------------------------------------||------------------------------------------------------------------||------------------------------------------------------------------||------------------------------------------------------------------||------------------------------------------------------------------||-0-0-0---0---0-0-0---0---0-0-0----0---0-0-0---0---0-0-0-0-0-0-0-0-|
|----------------------------------------------------------------||----------------------------------------------------------------||----------------------------------------------------------------||----------------------------------------------------------------||-0-0-8---8---0-0-7---7---0-0-7----0-0-0---0---0-0-0---0---0-0-0-||-0-0-8---8---0-0-7---7---0-0-7----0-0-0---0---0-0-0---0---0-0-0-|
|-----------------------------------------------------------------||-----------------------------------------------------------------||-----------------------------------------------------------------||-----------------------------------------------------------------||-0---0-0-0---0---0-0-0-0-0-0-0-0---0-0-0---0---0-0-0---0---0-0-0-||-0---0-0-0---0---0-0-0-0-0-0-0-0---0-0-0---0---0-0-0---0---0-0-0-|
|------------------------------------------------------------------||------------------------------------------------------------------||------------------------------------------------------------------||-------------------------------|--Pre Chorus----------------------||-0-0-8---8---0-0-7---7---0-0-7-|--8-8-8-8-8-8-8-7---7-7-7-7-7-7-7-||-0-0-8---8---0-0-7---7---0-0-7-|--8-8-8-8-8-8-8-7---7-7-7-7-7-7-7-|
Pre Chorus (Cont.)|-----------------------------------------------------------||-----------------------------------------------------------||-----------------------------------------------------------||-----------------------------------------------------------||-0-0-0-0-0-0-0-3-3-3-3-3-3-3-3---8-8-8-8-8-8-8-7---7-7-7-7-||-0-0-0-0-0-0-0-3-3-3-3-3-3-3-3---8-8-8-8-8-8-8-7---7-7-7-7-|
Chorus|-------------------------------------------------------------------||-------------------------------------------------------------------||-------------------------------------------------------------------||-------------------------------------------------------------------||-0-0-0-0-0-0-0-8---8-8-8-8-8-8-8-3---3-3-3-3-3-3-7-7-7-7-7-7-7-7-7-||-0-0-0-0-0-0-0-8---8-8-8-8-8-8-8-3---3-3-3-3-3-3-7-7-7-7-7-7-7-7-7-|
|-----------------------------------------------------------------------||-----------------------------------------------------------------------||-----------------------------------------------------------------------||-----------------------------------------------------------------------||-0-0-0-0-0-0-0-8---8-8-8-8-8-8-8-3---3-3-3-3-3-3-3-7---7-7-7-7-7-7-7-7-||-0-0-0-0-0-0-0-8---8-8-8-8-8-8-8-3---3-3-3-3-3-3-3-7---7-7-7-7-7-7-7-7-|
|-----------------------------------------------------------------||-----------------------------------------------------------------||-----------------------------------------------------------------||-----------------------------------------------------------------||-8---8-8-8-8-8-3-3-3-3-3-3-3-3---10-10-10-10-10-10-10-0---0-0-10-||-8---8-8-8-8-8-3-3-3-3-3-3-3-3---10-10-10-10-10-10-10-0---0-0-10-|
|-----------------------------------------------------------||-----------------------------------------------------------||-----------------------------------------------------------||-----------------------------------------------------------||-10-10-10---8-8-8-8-8-8-8-7---7-7-7-3-3-3-3---/-Pickslide--||-10-10-10---8-8-8-8-8-8-8-7---7-7-7-3-3-3-3---/-Pickslide--|
Verse 2|-----------------------------------------------------------------||-----------------------------------------------------------------||-----------------------------------------------------------------||-----------------------------------------------------------------||-0-0-0---0---0-0-0---0---0-0-0---0---0-0-0---0---0-0-0-0-0-0-0-0-||-0-0-0---0---0-0-0---0---0-0-0---0---0-0-0---0---0-0-0-0-0-0-0-0-|
|----------------------------------------------------------------||----------------------------------------------------------------||----------------------------------------------------------------||----------------------------------------------------------------||-0-0-0---0---0-0-0---0---0-0-0----0-0-8---8---0-0-7---7---0-0-7-||-0-0-0---0---0-0-0---0---0-0-0----0-0-8---8---0-0-7---7---0-0-7-|
|------------------------------------------------------------------||------------------------------------------------------------------||------------------------------------------------------------------||------------------------------------------------------------------||-0-0-0---0---0-0-0---0---0-0-0----0---0-0-0---0---0-0-0-0-0-0-0-0-||-0-0-0---0---0-0-0---0---0-0-0----0---0-0-0---0---0-0-0-0-0-0-0-0-|
|----------------------------------------------------------------||----------------------------------------------------------------||----------------------------------------------------------------||----------------------------------------------------------------||-0-0-0---0---0-0-0---0---0-0-0----0-0-8---8---0-0-7---7---0-0-7-||-0-0-0---0---0-0-0---0---0-0-0----0-0-8---8---0-0-7---7---0-0-7-|
|---------------------------------------------------------||---------------------------------------------------------||---------------------------------------------------------||---------------------------------------------------------||-0---0-0-0-0-0-0-0---0-0-0-0-0-0---0---------------------||-0---0-0-0-0-0-0-0---0-0-0-0-0-0---0---0-0-0---0---0-0-0-|
|------------------------------------------------------------------------||------------------------------------------------------------------------||------------------------------------------------------------------------||------------------------------------------------------------------------||-0---0-0-0-0-0-0-0---0-0-0-0-0-0---0----0---0-0-0-0-0-0-0---0-0-0-0-0-0-||-0---0-0-0-0-0-0-0---0-0-0-0-0-0---0----0---0-0-0-0-0-0-0---0-0-0-0-0-0-|
|-----------------------------------------------------------||-----------------------------------------------------------||-----------------------------------------------------------||-----------------------------------------------------------||-0-------0---0-0-0-0-0-0-0---0-0-0-0-0-0---0---/-Pickslide-||-0-0-0---0---0-0-0-0-0-0-0---0-0-0-0-0-0---0---/-Pickslide-|
Pre Chorus|-------------------------------------------------------------------||-------------------------------------------------------------------||-------------------------------------------------------------------||-------------------------------------------------------------------||-8-8-8-8-8-8-8-7---7-7-7-7-7-7-7---0-0-0-0-0-0-0-3---3-3-3-3-3-3-3-||-8-8-8-8-8-8-8-7---7-7-7-7-7-7-7---0-0-0-0-0-0-0-3---3-3-3-3-3-3-3-|
|---------------------------------------------------------------------||---------------------------------------------------------------------||---------------------------------------------------------------------||---------------------------------------------------------------------||-8-8-8-8-8-8-8-7---7-7-7-7-7-7-7---0-0-0-0-0-0-0-8---8-8-8-8-8-8-8-3-||-8-8-8-8-8-8-8-7---7-7-7-7-7-7-7---0-0-0-0-0-0-0-8---8-8-8-8-8-8-8-3-|
|--------------------------------------------------------------------||--------------------------------------------------------------------||--------------------------------------------------------------------||--------------------------------------------------------------------||-3-3-3-3-3-3-3-7--7-7-7-7-7-7-7-7--0-0-0-0-0-0-0-8--8-8-8-8-8-8-8-3-||-3-3-3-3-3-3-3-7--7-7-7-7-7-7-7-7--0-0-0-0-0-0-0-8--8-8-8-8-8-8-8-3-|
|----------------------------------------------------------------------||----------------------------------------------------------------------||----------------------------------------------------------------------||----------------------------------|-Chorus----------------------------||-3-3-3-3-3-3-3-7--7-7-7-7-7-7-7-7-|-8--8-8-8-8-8-8-8-3--3-3-3-3-3-3-3-||-3-3-3-3-3-3-3-7--7-7-7-7-7-7-7-7-|-8--8-8-8-8-8-8-8-3--3-3-3-3-3-3-3-|
Chorus (Cont.)|-----------------------------------------------------------------------||-----------------------------------------------------------------------||-----------------------------------------------------------------------||-----------------------------------------------------------------------||-10-10-10-10-10-10-10--0-0-10--10-10-10--8-8-8-8-8-8-8-7--7-7-7-3-3-3--||-10-10-10-10-10-10-10--0-0-10--10-10-10--8-8-8-8-8-8-8-7--7-7-7-3-3-3-7|
Pre-Breakdown|------------------------------------------------------------||------------------------------------------------------------||------------------------------------------------------------||------------------------------------------------------------||------------------------------------------------------------||-0-0-0--0-0-0--0-0-0--0-0---0--0-0-0--0-0-0--8--0--7--0-0-0-|
|---------------------------------------------------------------||---------------------------------------------------------------||---------------------------------------------------------------||---------------------------------------------------------------||-4------1------1--4--------------------------------------------||-4--0-0-1--0-0-1--4--0--7---0-0-0--0-0-0--0-0-0--0-0--0--0-0-0-|
|-------------------------------------------------------------------||-------------------------------------------------------------------||-------------------------------------------------------------------||---------------------------------|--Breakdown----------------------||----------------------------1--4-|--1-0-0-0--0-0-0---0-0-0-5-0-0-6-||-8--0--7--0-0-0--0-0-0--0-0-1--4-|--1-0-0-0--0-0-0---0-0-0---0-0---|
Breakdown (Cont.)|---------------------------------------------------------------||---------------------------------------------------------------||---------------------------------------------------------------||---------------------------------------------------------------||-6-0-0-0--0-0-0--0-0-0-1-0-0-4--4-0-0-0--0-0-0---0-0-0-5-0-0-6-||---0-0-0--0-0-0--0-0-0-1-0-0-4--4-0-0-0--0-0-0---0-0-0---0-0---|
|--------------------------------------------------------------||--------------------------------------------------------------||--------------------------------------------------------------||--------------------------------------------------------------||-6-0-0-0--0-0-0---0-0-0-1-0-0-4--0-0-0--0--0-0-0--0--0-0-0--0-||---0-0-0--0-0-0---0-0-0-1-0-0-4--0-0-0--0--0-0-0--0--0-0-0--0-|
|---------------------------------------------------------------||---------------------------------------------------------------||---------------------------------------------------------------||---------------------------------------------------------------||-0-0-0--0--0-0--0-0--0-0---0-0-0--0--0-0-0--0--0-0-0--0-0-8--8-||-0-0-0--0--0-0--0-0--0-0---0-0-0--0--0-0-0--0--0-0-0--0-0-8--8-|
|-----------------------------------------------------------||-----------------------------------------------------------||-----------------------------------------------------------||-----------------------------------------------------------||-0-0-7--7--0-0-7---0-0-0--0--0-0-0--0--0-0-0---0--0-0-0--0-||-0-0-7--7--0-0-7---0-0-0--0--0-0-0--0--0-0-0---0--0-0-0--0-|
|--------------------------------------------------------------||--------------------------------------------------------------||--------------------------------------------------------------||--------------------------------------------------------------||-0-0-0-0-0-0-0-0--0-0-0--0--0-0-0--0--0-0-0---0-0-8--8--0-0-7-||-0-0-0-0-0-0-0-0--0-0-0--0--0-0-0--0--0-0-0---0-0-8--8--0-0-7-|
|------------------------------------------------------||------------------------------------------------------||------------------------------------------------------||---------------------Chorus/Outro---------------------||-7--0-0-7---0---8-|--3-3-3-3-3-3-3-7--7-7-7-7-7-7-7-7-||-7--0-0-7---0---8-|--3-3-3-3-3-3-3-7--7-7-7-7-7-7-7-7-|
Chorus/Outro (Cont.)|--------------------------------------------------------------------||--------------------------------------------------------------------||--------------------------------------------------------------------||--------------------------------------------------------------------||-0-0-0-0-0-0-0-8--8-8-8-8-8-8-8-3--3-3-3-3-3-3-3-7--7-7-7-7-7-7-7-7-||-0-0-0-0-0-0-0-8--8-8-8-8-8-8-8-3--3-3-3-3-3-3-3-7--7-7-7-7-7-7-7-7-|
|------------------------------------------------------------||------------------------------------------------------------||------------------------------------------------------------||------------------------------------------------------------||-8--8-8-8-8-8-8-8-3--3-3-3-3-3-3-3--10-10-10-10-10-10-10--0-||-8--8-8-8-8-8-8-8-3--3-3-3-3-3-3-3--10-10-10-10-10-10-10--0-|
|--------------------------------------------------------||--------------------------------------------------------||--------------------------------------------------------||--------------------------------------------------------||-0--0--x--x--10--10--10--8-8-8-8-8-8-8-7--7-7-7-3-3-3-3-||-0--0--x--x--10--10--10--8-8-8-8-8-8-8-7--7-7-7-3-3-3-3-|
|--------------------------------------------------------------------||--------------------------------------------------------------------||--------------------------------------------------------------------||--------------------------------------------------------------------||-0-0-0-0-0-0-0-0--8-8-8-8-8-8-8-8--3-3-3-3-3-3-3-3--7-7-7-7-7-7-7-7-||-0-0-0-0-0-0-0-0--8-8-8-8-8-8-8-8--3-3-3-3-3-3-3-3--7-7-7-7-7-7-7-7-|
|------------------------------------------------------------------||------------------------------------------------------------------||------------------------------------------------------------------||------------------------------------------------------------------||-0-0-0-0-0-0-0-0--8-8-8-8-8-8-8-8--3-3-3-3-3-3-3-3--7-7-7-7-7-7-7-||-0-0-0-0-0-0-0-0--8-8-8-8-8-8-8-8--3-3-3-3-3-3-3-3--7-7-7-7-7-7-7-|
|---------------------------------------------------||---------------------------------------------------||---------------------------------------------------||---------------------------------------------------||-0-0-0-0-0-0-0-0--8-8-8-8-8-8-8-8--3-3-3-3-3-3-3-3-||-0-0-0-0-0-0-0-0--8-8-8-8-8-8-8-8--3-3-3-3-3-3-3-3-|
|--------------------||--------------------||--------------------||------------------3-||-7-7-7-7-7-7-7-7--0-||-7-7-7-7-7-7-7-7--0-|
Tap to rate this tab
 
# A B C D E F G H I J K L M N O P Q R S T U V W X Y Z