A Day To Remember – Monument Acoustic tab ver. 3

You can see me playing it here; http://www.youtube.com/watch?v=GXjs0p6I7OY

Tuning; Drop D

INTROe|------------------------------|B|------------------------------|G|--5-5-5-7-7-7-5-5-5-7-7-7-7-7-| X2D|--8-8-8-8-8-8-8-8-8-8-8-8-8-8-|A|------------------------------|D|------------------------------|
CHORUS|---------------------------------------------------||---------------------------------------------------||--3-3-3-3-3-3-3-3-3-3-3-3-5-5-5-5-5-5-5-5-5-5-5-5--||--1-1-1-1-1-1-1-1-1-1-1-1-3-3-3-3-3-3-3-3-3-3-3-3--||--1-1-1-1-1-1-1-1-1-1-1-1-3-3-3-3-3-3-3-3-3-3-3-3--||--1-1-1-1-1-1-1-1-1-1-1-1-3-3-3-3-3-3-3-3-3-3-3-3--|
|---------------------------------------------------||---------------------------------------------------||---------------------------------------------------||-55588877777888-8888888888888888-------------------||-55555555555555-8888888888888888-------------------||-55555555555555-8888888888888888-------------------|
|---------------------------------------------------||---------------------------------------------------||--3-3-3-3-3-3-3-3-3-3-3-3-5-5-5-5-5-5-5-5-5-5-5-5--||--1-1-1-1-1-1-1-1-1-1-1-1-3-3-3-3-3-3-3-3-3-3-3-3--||--1-1-1-1-1-1-1-1-1-1-1-1-3-3-3-3-3-3-3-3-3-3-3-3--||--1-1-1-1-1-1-1-1-1-1-1-1-3-3-3-3-3-3-3-3-3-3-3-3--|
|---------------------------------------------------||---------------------------------------------------||---------------------------------------------------||-55588877777888-8888888888888888-------------------||-55555555555555-8888888888888888-------------------||-55555555555555-8888888888888888-------------------|
VERSE1|---------------------------------------------------||---------------------------------------------------||---------------------------------------------------||--1-1-1-1-1-1-1-1-1-1-1-1-5-5-5-5-5-5-5-5-5-5-5-5--||--1-1-1-1-1-1-1-1-1-1-1-1-5-5-5-5-5-5-5-5-5-5-5-5--||--1-1-1-1-1-1-1-1-1-1-1-1-5-5-5-5-5-5-5-5-5-5-5-5--|PM . . . . . . . . . . . . . . . .
|---------------------------------------------------||---------------------------------------------------||---------------------------------------------------||--1-1-1-1-1-1-1-1-1-1-1-1-5-5-5-5-5-5-5-5-5-5-5-5--||--1-1-1-1-1-1-1-1-1-1-1-1-5-5-5-5-5-5-5-5-5-5-5-5--||--1-1-1-1-1-1-1-1-1-1-1-1-5-5-5-5-5-5-5-5-5-5-5-5--|PM . . . . . . . . . . . . . . . .
CHORUS|---------------------------------------------------||---------------------------------------------------||--3-3-3-3-3-3-3-3-3-3-3-3-5-5-5-5-5-5-5-5-5-5-5-5--||--1-1-1-1-1-1-1-1-1-1-1-1-3-3-3-3-3-3-3-3-3-3-3-3--||--1-1-1-1-1-1-1-1-1-1-1-1-3-3-3-3-3-3-3-3-3-3-3-3--||--1-1-1-1-1-1-1-1-1-1-1-1-3-3-3-3-3-3-3-3-3-3-3-3--|
|---------------------------------------------------||---------------------------------------------------||---------------------------------------------------||-55588877777888-8888888888888888-------------------||-55555555555555-8888888888888888-------------------||-55555555555555-8888888888888888-------------------|
|---------------------------------------------------||---------------------------------------------------||--3-3-3-3-3-3-3-3-3-3-3-3-5-5-5-5-5-5-5-5-5-5-5-5--||--1-1-1-1-1-1-1-1-1-1-1-1-3-3-3-3-3-3-3-3-3-3-3-3--||--1-1-1-1-1-1-1-1-1-1-1-1-3-3-3-3-3-3-3-3-3-3-3-3--||--1-1-1-1-1-1-1-1-1-1-1-1-3-3-3-3-3-3-3-3-3-3-3-3--|
|---------------------------------------------------||---------------------------------------------------||---------------------------------------------------||-55588877777888-8888888888888888-------------------||-55555555555555-8888888888888888-------------------||-55555555555555-8888888888888888-------------------|
BRIDGE1|----------1---------------1---------------1---------------1-------||------1-----1---1-----1-----1---1-----1-----1---1-----1-----1-----||--3-3---3-----3---3-3---3-----3---3-3---3-----3---3-3---3-----3-2-||------------------------------------------------------------------||------------------------------------------------------------------||------------------------------------------------------------------|
VERSE2|---------------------------------------------------||---------------------------------------------------||---------------------------------------------------||--1-1-1-1-1-1-1-1-1-1-1-1-5-5-5-5-5-5-5-5-5-5-5-5--||--1-1-1-1-1-1-1-1-1-1-1-1-5-5-5-5-5-5-5-5-5-5-5-5--||--1-1-1-1-1-1-1-1-1-1-1-1-5-5-5-5-5-5-5-5-5-5-5-5--|PM . . . . . . . . . . . . . . . .
|---------------------------------------------------||---------------------------------------------------||---------------------------------------------------||--1-1-1-1-1-1-1-1-1-1-1-1-5-5-5-5-5-5-5-5-5-5-5-5~-||--1-1-1-1-1-1-1-1-1-1-1-1-5-5-5-5-5-5-5-5-5-5-5-5~-||--1-1-1-1-1-1-1-1-1-1-1-1-5-5-5-5-5-5-5-5-5-5-5-5~-|PM . . . . . . . . . . . . . . . .
|---------------------------------------------------||---------------------------------------------------||---------------------------------------------------||--1-1-1-1-1-1-1-1-1-1-1-1-5-5-5-5-5-5-5-5-5-5-5-5--||--1-1-1-1-1-1-1-1-1-1-1-1-5-5-5-5-5-5-5-5-5-5-5-5--||--1-1-1-1-1-1-1-1-1-1-1-1-5-5-5-5-5-5-5-5-5-5-5-5--|
CHORUS|---------------------------------------------------||---------------------------------------------------||--3-3-3-3-3-3-3-3-3-3-3-3-5-5-5-5-5-5-5-5-5-5-5-5--||--1-1-1-1-1-1-1-1-1-1-1-1-3-3-3-3-3-3-3-3-3-3-3-3--||--1-1-1-1-1-1-1-1-1-1-1-1-3-3-3-3-3-3-3-3-3-3-3-3--||--1-1-1-1-1-1-1-1-1-1-1-1-3-3-3-3-3-3-3-3-3-3-3-3--|
|---------------------------------------------------||---------------------------------------------------||---------------------------------------------------||-55588877777888-8888888888888888-------------------||-55555555555555-8888888888888888-------------------||-55555555555555-8888888888888888-------------------|
|---------------------------------------------------||---------------------------------------------------||--3-3-3-3-3-3-3-3-3-3-3-3-5-5-5-5-5-5-5-5-5-5-5-5--||--1-1-1-1-1-1-1-1-1-1-1-1-3-3-3-3-3-3-3-3-3-3-3-3--||--1-1-1-1-1-1-1-1-1-1-1-1-3-3-3-3-3-3-3-3-3-3-3-3--||--1-1-1-1-1-1-1-1-1-1-1-1-3-3-3-3-3-3-3-3-3-3-3-3--|
|---------------------------------------------------||---------------------------------------------------||---------------------------------------------------||-55588877777888-8888888888888888-------------------||-55555555555555-8888888888888888-------------------||-55555555555555-8888888888888888-------------------|
BRIDGE|------------------------------------------------------||------------------------------------------------------||-5-5-5-5-5-5-5-5-5-5-5-5-5-7-7-7-8-8-8-8-8-8-8-8-8-8--||-5-5-5-5-5-5-5-5-5-5-5-5-5-7-7-7-8-8-8-8-8-8-8-8-8-8--||-3-3-3-3-3-3-3-3-3-3-3-3-3-5-5-5-6-6-6-6-6-6-6-6-6-6--||------------------------------------------------------|PM. . . . . . . . . . . . . . . . . . . . . . . . . .
|-------------------------------------------------------------||-------------------------------------------------------------||-------------------------------------------------------------||-5-5-5-5-5-5-5-5-5-5-5-5-5-5-5-5-3-3-3-3-3-3-3-3-3-3-3-3-3-3-||-5-5-5-5-5-5-5-5-5-5-5-5-5-5-5-5-3-3-3-3-3-3-3-3-3-3-3-3-3-3-||-5-5-5-5-5-5-5-5-5-5-5-5-5-5-5-5-3-3-3-3-3-3-3-3-3-3-3-3-3-3-|PM. . . . . . . . . . . . . . . . . . . . . . . . . . . . . .
|------------------------------------------------------||------------------------------------------------------||-5-5-5-5-5-5-5-5-5-5-5-5-5-7-7-7-8-8-8-8-8-8-8-8-8-8--||-5-5-5-5-5-5-5-5-5-5-5-5-5-7-7-7-8-8-8-8-8-8-8-8-8-8--||-3-3-3-3-3-3-3-3-3-3-3-3-3-5-5-5-6-6-6-6-6-6-6-6-6-6--||------------------------------------------------------|
|-------------------------------------------------------------||-------------------------------------------------------------||-------------------------------------------------------------||-5-5-5-5-5-5-5-5-5-5-5-5-5-5-5-5-3-3-3-3-3-3-3-3-3-3-3-3-3-3-||-5-5-5-5-5-5-5-5-5-5-5-5-5-5-5-5-3-3-3-3-3-3-3-3-3-3-3-3-3-3-||-5-5-5-5-5-5-5-5-5-5-5-5-5-5-5-5-3-3-3-3-3-3-3-3-3-3-3-3-3-3-|
(And I'll scream...)|--------------------------------------------------------------------||--------------------------------------------------------------------||-5~-7-7-8~----------------------------------------------------------||-5~-7-7-8~--5-5-5-5-5-5-5-5-5-5-5-5-5-5-3-3-3-3-3-3-3-3-3-3-3-3-3-3-|X2 |-3~-5-5-6~--5-5-5-5-5-5-5-5-5-5-5-5-5-5-3-3-3-3-3-3-3-3-3-3-3-3-3-3-||------------5-5-5-5-5-5-5-5-5-5-5-5-5-5-3-3-3-3-3-3-3-3-3-3-3-3-3-3-|
(Twenty bucks says...)|------------------||------------------||-5~-7-7-8~--------||-5~-7-7-8~--5--3--| |-3~-5-5-6~--5--3--||------------5--3--|
Please rate this tab:
x1.0