A Life Once Lost – Ghosting tab

----------------------------------------------|----------------------------------------------|----------------------------------------------|-----------------------------------------4----|-------------------------------------------3-2|000-0-0-3b-000-0-0-2b-000-0-0-3b-000-0-0------|
-------------------------------------------------------|-------------------------------------------------------|-------------------------------------------------------|-----------------------------------------4-------1---4b|-------------------------------------------3-2-1---2---|000-0-0-3b-000-0-0-2b-000-0-0-3b-000-0-0---------------|
-------------------|----------------------------|-------------------|----------------------------|-------------------|----------------------------|----------1---4b-x2|----------1-----1---4b------| x2--------1---2------|--------1---2-1---2---------|000-000------------|000-000---------------------|
---------------------------------------------------------------------|---------------------------------------------------------------------|---------------------------------------------------------------------|---------------------------------------------------------------------|00-00-00-00-00-000000-00-00-00-00-00-000000-00-00-00-00-00-000000----|00-00-00-00-00-000000-00-00-00-00-00-000000-00-00-00-00-00-000000--3b|
(I think this is it)---------------------------------------------------------------------|---------------------------------------------------------------------|---------------------------------------------------------------------|---------------------------------------------------------------------|--------------------------------3b--------------------------------1b-|1h2h3-2h3h4-1b-3-1b-1h2h3-2h3h4----1h2h3-2h3h4-4-1-4-1h2h3-2h3h4h----|
-----------------------------------------------------------------|-----------------------------------------------------------------|-----------------------------------------------------------------|-----------------------------------------------------------------|------------------------------3b-------------------------------3b|1h2h3-2h3h4-4-1-4-1h2h3-2h3h4----1h2h3-2h3h4-4-1-4-1h2h3-2h3h4---|
----------------------------------------------|----------------------------------------------|----------------------------------------------|-----------------------------------------4----|-------------------------------------------3-2|000-0-0-3b-000-0-0-2b-000-0-0-3b-000-0-0------|
-------------------------------------------------------|-------------------------------------------------------|-------------------------------------------------------|-----------------------------------------4-------1---4b|-------------------------------------------3-2-1---2---|000-0-0-3b-000-0-0-2b-000-0-0-3b-000-0-0---------------|
-------------------|----------------------------|-------------------|----------------------------|-------------------|----------------------------|----------1---4b-x2|----------1-----1---4b------| x2--------1---2------|--------1---2-1---2---------|000-000------------|000-000---------------------|
---------------------------------------------------------------------|---------------------------------------------------------------------|---------------------------------------------------------------------|---------------------------------------------------------------------|00-00-00-00-00-000000-00-00-00-00-00-000000-00-00-00-00-00-000000----|00-00-00-00-00-000000-00-00-00-00-00-000000-00-00-00-00-00-000000--3b|
---------------------------------------------------------------------|---------------------------------------------------------------------|---------------------------------------------------------------------|---------------------------------------------------------------------|--------------------------------3b--------------------------------1b-|1h2h3-2h3h4-1b-3-1b-1h2h3-2h3h4----1h2h3-2h3h4-4-1-4-1h2h3-2h3h4h----|
-----------------------------------------------------------------|-----------------------------------------------------------------|-----------------------------------------------------------------|-----------------------------------------------------------------| x2------------------------------3b-------------------------------3b|1h2h3-2h3h4-4-1-4-1h2h3-2h3h4----1h2h3-2h3h4-4-1-4-1h2h3-2h3h4---|
Solo:(I have literally no clue what they are playing, but I tried my best....Not really. Just fill the solo with these notes.)-----------------------------------------------|--------------------------------------------12*|8h10h11h12-8h10h11h12-8h10h11h12-8h10h11h12----|-----------------------------------------------|-----------------------------------------------|-----------------------------------------------|
----------------------------------------------|----------------------------------------------|12-10-9-10-9-7-9-7-6-12-10-9-10-9-7-9-7-6b----|----------------------------------------------|----------------------------------------------|----------------------------------------------|
----------------------------------------------|----------------------------------------------|6-8-9-8-9-11-10-12-14b-6-8-9-8-9-11-10-12-15b-|----------------------------------------------|----------------------------------------------|----------------------------------------------|
------------------------------------------------------|--19--17---21--19---19--17---21--19---19--17---21--19b|15--15---17--17---15--15---17--17---15--15---17--17---|------------------------------------------------------|------------------------------------------------------|------------------------------------------------------|
----------|----------------------------------------------------------|----------|----------------------------------------------------------|----------|----------------------------------------------------------|----------|X3--------------------------------------------------------|000-000-00|----0-0-0-000-000-00-000-000-00-000-000-00-0000-1-1-1-1---|000-000-00|----0-0-0-000-000-00-000-000-00-000-000-00-0000-1-1-1-1-3b|
---------------------------------------------------------------------|---------------------------------------------------------------------|---------------------------------------------------------------------|---------------------------------------------------------------------|--------------------------------3b--------------------------------1b-|1h2h3-2h3h4-1b-3-1b-1h2h3-2h3h4----1h2h3-2h3h4-4-1-4-1h2h3-2h3h4h----|
-----------------------------------------------------------------|-----------------------------------------------------------------|-----------------------------------------------------------------|-----------------------------------------------------------------| x2------------------------------3b-------------------------------3b|1h2h3-2h3h4-4-1-4-1h2h3-2h3h4----1h2h3-2h3h4-4-1-4-1h2h3-2h3h4---|
-----------------------|-----------------------|-----------------------|3----------3----------3|3-xxxxxxxx-3-xxxxxxxx-3|3-xxxxxxxx-3-xxxxxxxx-1|
I know it's not a hundred percent right, but whatever. As far as I know, this is the only tabs on here with this song.
Please rate this tab:
x1.0