A Life Once Lost - Ill Will tab version 2

|------------------------------------------------|--------------| |------------------------------------------------|--------------||------------------------------------------------|--------------||-------------------------76-7666x-63-6333-3-4-x2|-------5------||-------------------------76-7666x-63-6333-3-4---|7b-5-3---3-1-0||-1b-0-1b-0-1b--000-000---76-7666x-63-6333-3-4---|--------------|
--------------------------------------------------|--------------------------------------------------|--------------------------------------------------|-----------------------------------------------7-5| x2-------------------------------0-----------9-7----|00000000-3-2-0000-5-3-0000-7-5-0-7-9-10b-9--------|
------------------------------------------------------------|------------------------------------------------------------|------------------------------------------------------------|---------------------------------------------------------7-5|00000000-3-2---0000-5-3---0000-7-5---0-7-9---10------9-7----|00000000-3-2---0000-5-3---0000-7-5---0-7-9---10b------------|
-----------------------------------------------|-----------------------------------------------|-----------------------------------------------|-----------------------------------------------|00000000-3-2---0000-5-3---0000-7-5--0000-7-9-12|00000000-3-2---0000-5-3---0000-7-5--0000-7-9-12|
-----------------------------|---------------------------|-----------------------------|---------------------------|-----------------------------|---------------------------|-----------------------------|---------------------------|0000-7-5-0000-9-7-0000-7-5-x2|-------------------55555555|0000-7-5-0000-9-7-0000-7-5---|3b-0-3b-0-2-3-5-3--33333333|
----------------------------------------------|----------------------------------------------|----------------------------------------------|----------------------------------------------|----------------------------------------------|3b-0-3b-0-2-3-5-3-2-3-2b-2-1b-----------------|
_______________________________________________
-----------------------------------------------|-----------------------------------------------|-----------------------------------------------|-----------------------------------------------|9-9-00-7-7-5-5-00-5-5-9-9-00-9-9-1-1-00-1-1-2-2|7-7-00-5-5-3-3-00-3-3-7-7-00-7-7-3-3-00-3-3-0-0|
------------------------------------------|------------------------------------------|------------------------------------------|------------------------------------------|00-2-2-3-3-00-3-3-5-5-00-5-5-3-000-7h8p7-5|00-0-0-1-1-00-1-1-3-3-00-3-3-1-000--------|
---------------------------------|---------------------------------|---------------------------------|---------------------------------|5-55555-7-77777-9-99999-3-333----|3-33333-5-55555-7-77777-1-111-12\|
------------------------------------------|------------------------------------------|------------------------------------------|------------------------------------------|3-3-00-3-3-5-5-00-7-7-00-7-7-3-000-7h8p7-5|1-1-00-1-1-3-3-00-5-5-00-5-5-1-000--------|
*Solo* (Did my best) --------------------------------------------------|---------15-----------17------------15----------14|12-12-12-----12-12-12------12-12-12----12-12-12---|--------------------------------------------------|--------------------------------------------------|--------------------------------------------------|
-------------------------------------------------------------------------|---------22-22-19-19-20-18-16--------------------------------------------|12-12-12----------------------18-16-14-----------------------------------|---------------------------------------16-14-13--------------------------|------------------------------------------------14-13-11-----------------|---------------------------------------------------------13-12-10-10-9-7b|
-----------------------------------------------------------|-----------------------------------------------------------|12-12-9\15-*15b--12-12-9\17-*17b--12-12-9\15-15-17-15-19p17|-----------------------------------------------------------|-----------------------------------------------------------|-----------------------------------------------------------|
--------------------------------------------------|---------15-----------17------------15----------14|12-12-12-----12-12-12------12-12-12----12-12-12---|--------------------------------------------------|--------------------------------------------------|--------------------------------------------------|
-------------------------------------------------------------------------|---------22-22-19-19-20-18-16--------------------------------------------|12-12-12----------------------18-16-14-----------------------------------|---------------------------------------16-14-13--------------------------|------------------------------------------------14-13-11-----------------|---------------------------------------------------------13-12-10-10-9-7b|
-----------------------------------------------------------------------|17b-17-17-17-17-15-14-15-19b-19-19-19-19-17-16-17-21b-21-21-21-19-18-19|-----------------------------------------------------------------------|-----------------------------------------------------------------------|-----------------------------------------------------------------------|-----------------------------------------------------------------------|
----------------------------------------------|21b-21-21-18-19-19-16-17-17-15-21*b\----------|----------------------------------------------|----------------------------------------------|----------------------------------------------|----------------------------------------------|
----------------------------------------------------------|----------------------------------------------------------|----------------------------------------------------------|----------------------------------------------------------|0000-7-5-00-9-7-00----------------------------------------|0000-7-5-00-9-7-00----------------------------------------|
----------------------------------------------|----------------------------------------------|----------------------------------------------|----------------------------------------------|------------------55555555--------------------|3b-0-3b-0-2-3-5-3-33333333--------------------|
----------------------------------------------|----------------------------------------------|----------------------------------------------|----------------------------------------------|----------------------------------------------|3b-0-3b-0-2-3-5-3-2-3-2b-2-1b-----------------|
|----------------------------------------------| |----------------------------------------------||----------------------------------------------||-------------------------76-7666x-63-6333-3-4-| x2|-------------------------76-7666x-63-6333-3-4-||-1b-0-1b-0-1b--000-000---76-7666x-63-6333-3-4-|
|----------------------------------------------| |----------------------------------------------||----------------------------------------------||-------------------------76-7666x-63-6333-3-4-||-------------------------76-7666x-63-6333-3-4-||-3b-0-3b-0-3b--000-000---76-7666x-63-6333-3-4-|
|----------------------------------------------------| |----------------------------------------------------||----------------------------------------------------||-------------------------76-7666x-63-6333-3-4-x-x-x-||-------------------------76-7666x-63-6333-3-4-x-x-x-||-1b-0-1b-0-1b--000-000---76-7666x-63-6333-3-4-x-x-x-|
Tap to rate this tab
 
# A B C D E F G H I J K L M N O P Q R S T U V W X Y Z