A Life Once Lost - Cavil tab

-----------------------------|-----------------------------|-----------------------------|-----------------------------| x35----------5-----------------|3-/10-00-0-3-/10-00-0-000-0-0|
-------------------------------------------------------|----------------------------------------------------21b|12b-12b-12-9-9h11h12p11b-8b-12b-12/16b-16/18b-18/20b---|-------------------------------------------------------|-------------------------------------------------------|-------------------------------------------------------|
----------------------------------------------|----------------------------------------------|----------------------------------------------|----------------------------------------------|------0--0-------0--0-------0-0-------0-0-0-00|7b-7b-0--0-7b-7b-0--0-7b-7b-0-0-7b-7b-0-0-0-00|
-----------------------------------------------------------------------|-----------------------------------------------------------------------|-----------------------------------------------------------------------|-----------------------------------------------------------------------|-----------------------------------------------------------------------| x39b/-0-00-0-9b/-0-00-0-9b/-0-00-0-9b-7b/-0-00-0-7b/-0-00-0-7b/-0-00-0-7b|
-------------------------------------------------------|-------------------------------------------------------|-------------------------------------------------------|-------------------------------------------------------|------0-0-------0-0-------0-0-------0-0-------0-0------|7b-7b-0-0-7b-7b-0-0-7b-7b-0-0-7b-7b-0-0-7b-7b-0-0-7b-7b|
----------------------------------------------------------------|----------------------------------------------------------------|----------------------------------------------------------------|----------------------------------------------------------------|----------------------------------------------------------------|10b-10b-10b-10b-000-10b-10b-10b-000-10b-10b-10b-0000-10b-10b-10b|
------------------------------------------|------------------------------------------|------------------------------------------|------------------------------------------|------------------------------------------| x40000-10b-10b-10b-0000-10b-10b-10b-00000000|
---------------------|---------------------|---------------------|---------------------| x75----------5---------|3-/10-00-0-3-/10-00-0|
-----------------------------|-----------------------------|-----------------------------|-----------------------------| x65----------5-----------------|3-/10-00-0-3-/10-00-0-000-0-0|
--------------------|--------------------|12b-12/16b-15b-15\9b|--------------------|--------------------|--------------------|
----------------------------------------------------------------|----------------------------------------------------------------|----------------------------------------------------------------|----------------------------------------------------------------|----------------------------------------------------------------|10b-10b-10b-10b-000-10b-10b-10b-000-10b-10b-10b-0000-10b-10b-10b|
------------------------------------------|------------------------------------------|------------------------------------------|------------------------------------------|------------------------------------------| x40000-10b-10b-10b-0000-10b-10b-10b-00000000|
-----------------------------|-----------------------------|-----------------------------|-----------------------------| Till the end5----------5-----------------|3-/10-00-0-3-/10-00-0-000-0-0|
Tap to rate this tab
 
# A B C D E F G H I J K L M N O P Q R S T U V W X Y Z