A Life Once Lost - A Rush Seige tab

--------------------------------------------------|--------------------------------------------------|--------------------------------------------------|-----------------------------------------------*5b| x27--5-5b-----------5-------7-5-5b-----------5------|5--3----3-1--0--3---3-1b--5-3----3-1--0--3---3----|
------------------|--------------|--------------------------------|------------------|--------------|--------------------------------|------------------|--------------|--------------------------------|----3-0-----------|7h9h10-9h10h12|--------------------------------| x3000-----1-1h3h4-x3|--------------|000-5-0----000000-00000---0-----|000---------------|--------------|000---0-3b-000000-00000-1-0-1-3b|
-------------------------------------|-------------------------------------|-------------------------------------|-------------------------------------|0000----0000-5-7-0000-7-9-0-5-7-0-3-5| x40000-3b-0000-----0000-----0-----0----|
------------------|--------------|--------------------------------|------------------|--------------|--------------------------------|------------------|--------------|--------------------------------|----3-0-----------|7h9h10-9h10h12|--------------------------------| x3000-----1-1h3h4-x3|--------------|000-5-0----000000-00000---0-----|000---------------|--------------|000---0-3b-000000-00000-1-0-1-3b|
-------------------------------------|-------------------------------------|-------------------------------------|-------------------------------------|0000----0000-5-7-0000-7-9-0-5-7-0-3-5| x40000-3b-0000-----0000-----0-----0----|
Pause
-------------------------------------|-------------------------------------|-------------------------------------|-------------------------------------|0000----0000-5-7-0000-7-9-0-5-7-0-3-5| x20000-3b-0000-----0000-----0-----0----|
--------------------------------|--------------------------------|--------------------------------|--------------------------------|5-0000-5-0000-----------------x3|3-0000-3-0000-5-1-1-1-5-1-1-1---|
*Solo*----------------------------------------------------------------------------|---------10-12-13-15-13-12-10-13-12-10-7------------------------------------|-----------------------------------------12-10-12-10-12-15-17-15-14-15-14-12|10-12-13--------------------------------------------------------------------|----------------------------------------------------------------------------|----------------------------------------------------------------------------|
------------------------------------------------------------|-------7-9-10-12-10-9-7-10-9-7------------------------------|-------------------------------9-7-9-7-9-12-14-12-11-12-11-9|7-9-10------------------------------------------------------|------------------------------------------------------------|------------------------------------------------------------|
----------------------------------------------------------------------------|---------10-12-13-15-13-12-10-13-12-10-7------------------------------------|-----------------------------------------12-10-12-10-12-15-17-15-14-15-14-12|10-12-13--------------------------------------------------------------------|----------------------------------------------------------------------------|----------------------------------------------------------------------------|
-------------------------------------------------------------|-------7-9-10-12-10-9-7-10-9-7-------------------------------|-------------------------------9-7-9-7-9-12-14-12-11-12-11-9b|7-9-10-------------------------------------------------------|-------------------------------------------------------------|-------------------------------------------------------------|
----------------------------------------------------|----------------------------------------------------|----------------------------------------------------|----------------------------------------------------|55-0000-55-0-55-0-55-0000000000-55-0000-55-0-55-0---|33-0000-33-0-33-0-33-0000000000-33-0000-33-0-33-0-1b|
---------------------------------------------------------------|---------------------------------------------------------------|---------------------------------------------------------------|---------------------------------------------------------------|0000000000-11-0000-11-0-11-0-11-0000000000-11-0000-11-0-11-0-11|0000000000-11-0000-11-0-11-0-11-0000000000-11-0000-11-0-11-0-11|
--------------------------------|--------------------------------|--------------------------------|--------------------------------|5-0000-5-0000-----------------x3|3-0000-3-0000-5-1-1-1-5-1-1-1---|
------------------|--------------|------------------------------------|------------------|--------------|------------------------------------|------------------|--------------|------------------------------------|----3-0-----------|7h9h10-9h10h12|14-12-11-12-10-9-10-9-7-9-7-6-7-5-4b|000-----1-1h3h4-x3|--------------|------------------------------------|000---------------|--------------|------------------------------------|
--------------------------------|--------------------------------|--------------------------------|--------------------------------| x3000-5-0----000000-00000---0-----|000---0-3b-000000-00000-1-0-1-3b|
-------------------------------------|-------------------------------------|-------------------------------------|-------------------------------------|0000----0000-5-7-0000-7-9-0-5-7-0-3-5| x20000-3b-0000-----0000-----0-----0----|
Tap to rate this tab
 
# A B C D E F G H I J K L M N O P Q R S T U V W X Y Z