A Life Once Lost - Firewater Joyride tab

~ = Vibrato
b = Bend
/ = Slide up
\ = Slide down
p = Pull-off
h = Hammer-on
* = Artificial Harmonic
...=Palm Mute

+--------------------------+
|NOTE: No solo, sorry guys.|+--------------------------+
Verse|--------------------------------------------------------------------||--------------------------------------------------------------------||--------------------------------------------------------------------||------0---------------------------------------------------------5-3-||------0---------------------------------------------------------5-3-||-/12\-0--0-3-0-0-5-0-0-6-0-7-0-10-0-12~-0-15-12-0-11-12-0-6-7-0-5-3-|
|---------------------------------------------------------------||---------------------------------------------------------------||---------------------------------------------------------------||-0---------------------------------------------------------5-3-||-0---------------------------------------------------------5-3-||-0--0-3-0-0-5-0-0-6-0-7-0-10-0-12~-0-15-12-0-11-12-0-6-7-0-5-3-|
|---------------------------------------------------------------||---------------------------------------------------------------||---------------------------------------------------------------||-0---------------------------------------------------------5-3-||-0---------------------------------------------------------5-3-||-0--0-3-0-0-5-0-0-6-0-7-0-10-0-12~-0-15-12-0-11-12-0-6-7-0-5-3-| . . . . . . . . . . . .
|---------------------------------------------------------------||---------------------------------------------------------------||---------------------------------------------------------------||-0---------------------------------------------------------5-3-||-0---------------------------------------------------------5-3-||-0--0-3-0-0-5-0-0-6-0-7-0-10-0-12~-0-15-12-0-11-12-0-6-7-0-5-3-|
Pre-ChorusGuitar 1|--------------------------------||--------------------------------||--------------------------------||-0-5--5-5--5-5-5-3b-------------||-0-5--5-5--5-5-5-3b--0-0-0-0----||-0-5--5-5--5-5-5-3b--0-0-0-0-3*-| . . . .
Guitar 2|--------------------------------||--------------------------------||--------------------------------||-0-5--5-5--5-5-5-3b-------------||-0-5--5-5--5-5-5-3b--0-0-0-0-3*-||-0-5--5-5--5-5-5-3b--0-0-0-0----| . . . .
Chorus|---------------------------------------------------------------------||---------------------------------------------------------------------|\|---------------------------------------------------------------------| \|-0-0-0-------------0-0-0-------------0-0-0---------------------3-3-3-| \|-0-0-0-10~----10~--0-0-0-10-0-0-10~--0-0-0-10--0-10-8b-0-0-0-0-3-3-3-| \|-0-0-0------0------0-0-0----0-0------0-0-0-----0-------0-0-0-0-3-3-3-| \
. . . . . . . . . Repeat 2x /|---------------------------------------------------------------------| /|---------------------------------------------------------------------| /|---------------------------------------------------------------------| /|-0-0-0-------------0-0-0-------------0-0-0---------------------------|/|-0-0-0-10~----10~--0-0-0-10-0-0-10~--0-0-0-10--0-10-8b-0-0-0-5-3-0---||-0-0-0------0------0-0-0----0-0------0-0-0-----0-------0-0-0-------6-| . . . . . . . .
Verse|--------------------------------------------------------------||--------------------------------------------------------------||--------------------------------------------------------------||----------------------------------------------------------5-3-||----------------------------------------------------------5-3-||-0-0-3-0-0-5-0-0-6-0-7-0-10-0-12~-0-15-12-0-11-12-0-6-7-0-5-3-|
|---------------------------------------------------------------||---------------------------------------------------------------||---------------------------------------------------------------||-0---------------------------------------------------------5-3-||-0---------------------------------------------------------5-3-||-0--0-3-0-0-5-0-0-6-0-7-0-10-0-12~-0-15-12-0-11-12-0-6-7-0-5-3-|
|---------------------------------------------------------------||---------------------------------------------------------------||---------------------------------------------------------------||-0---------------------------------------------------------5-3-||-0---------------------------------------------------------5-3-||-0--0-3-0-0-5-0-0-6-0-7-0-10-0-12~-0-15-12-0-11-12-0-6-7-0-5-3-| . . . . . . . . . . . .
|---------------------------------------------------------------||---------------------------------------------------------------||---------------------------------------------------------------||-0---------------------------------------------------------5-3-||-0---------------------------------------------------------5-3-||-0--0-3-0-0-5-0-0-6-0-7-0-10-0-12~-0-15-12-0-11-12-0-6-7-0-5-3-|
Pre-ChorusGuitar 1|--------------------------------||--------------------------------||--------------------------------||-0-5--5-5--5-5-5-3b-------------||-0-5--5-5--5-5-5-3b--0-0-0-0----||-0-5--5-5--5-5-5-3b--0-0-0-0-3*-| . . . .
Guitar 2|--------------------------------||--------------------------------||--------------------------------||-0-5--5-5--5-5-5-3b-------------||-0-5--5-5--5-5-5-3b--0-0-0-0-3*-||-0-5--5-5--5-5-5-3b--0-0-0-0----| . . . .
Chorus|---------------------------------------------------------------------||---------------------------------------------------------------------||---------------------------------------------------------------------||-0-0-0-------------0-0-0-------------0-0-0---------------------3-3-3-||-0-0-0-10~----10~--0-0-0-10-0-0-10~--0-0-0-10--0-10-8b-0-0-0-0-3-3-3-||-0-0-0------0------0-0-0----0-0------0-0-0-----0-------0-0-0-0-3-3-3-| . . . . . . . . .
|---------------------------------------------------------------------||---------------------------------------------------------------------||---------------------------------------------------------------------||-0-0-0-------------0-0-0-------------0-0-0---------------------------||-0-0-0-10~----10~--0-0-0-10-0-0-10~--0-0-0-10--0-10-8b-0-0-0-5-3-0---||-0-0-0------0------0-0-0----0-0------0-0-0-----0-------0-0-0-------6-| . . . . . . . .
|---------------------------------------------------------------------||---------------------------------------------------------------------||---------------------------------------------------------------------||-0-0-0-------------0-0-0-------------0-0-0---------------------3-3-3-||-0-0-0-10~----10~--0-0-0-10-0-0-10~--0-0-0-10--0-10-8b-0-0-0-0-3-3-3-||-0-0-0------0------0-0-0----0-0------0-0-0-----0-------0-0-0-0-3-3-3-| . . . . . . . . .
|---------------------------------------------------------------------||---------------------------------------------------------------------||---------------------------------------------------------------------||-0-0-0-------------0-0-0-------------0-0-0---------------------3-3-0-||-0-0-0-10~----10~--0-0-0-10-0-0-10~--0-0-0-10--0-10-8b-0-0-0-0-3-3-0-||-0-0-0------0------0-0-0----0-0------0-0-0-----0-------0-0-0-0-3-3-0-| . . . . . . . . .
Pre-SoloGuitar 1|------------------------||------------------------|\|------------------------| \|-3-5-3-6-5--3---0-3-3-0-| \|--------------3---3-3-0-| \|------------------3-3-0-| \
Repeat 3xGuitar 2 /|------------------------| /|------------------------| /|------------------------| /|------------------3-3-0-|/|------------------3-3-0-||------------------3-3-0-|
Both Guitars|----------------------------||----------------------------||-5-5-----------5-5----5-----||-5-5-0--3-3-0--5-5-0--5-0-0-||-3-3-0--3-3-0--3-3-0--3-0-0-||-----0--3-3-0------0----0-0-|
|------------------------||------------------------||------------------------||-3-5-3-6-5--3---0-3-3-0-| Repeat 3x|--------------3---3-3-0-||------------------3-3-0-|
|----------------------------||----------------------------||-5-5-----------5-5----5-7---||-5-5-0--3-3-0--5-5-0--5-7-0-||-3-3-0--3-3-0--3-3-0--3-5-0-||-----0--3-3-0------0------0-|
Solo Sorry guys, don't have the solo, but, I have the rhythm guitar for the solo:
|------------------------||------------------------||------------------------||-3-5-3-6-5--3---0-3-3-0-| Repeat 3x|--------------3---3-3-0-||------------------3-3-0-|
|----------------------------||----------------------------||-5-5-----------5-5----5-7---||-5-5-0--3-3-0--5-5-0--5-7-0-||-3-3-0--3-3-0--3-3-0--3-5-0-||-----0--3-3-0------0------0-|
|------------------------||------------------------||------------------------||-3-5-3-6-5--3---0-3-3-0-| Repeat 3x|--------------3---3-3-0-||------------------3-3-0-|
|--------------------------||--------------------------||-5-5-----------5-5----5-7-||-5-5-0--3-3-0--5-5-0--5-7-||-3-3-0--3-3-0--3-3-0--3-5-||-----0--3-3-0------0------|
|----------------------------||----------------------------||----------------------------||-5--5-5--5-5-5-3b-----------||-5--5-5--5-5-5-3b--0-0-0----||-5--5-5--5-5-5-3b--0-0-0-3*-|
ChorusBoth Guitars|---------------------------------------------------------------------||---------------------------------------------------------------------|\|---------------------------------------------------------------------| \|-0-0-0-------------0-0-0-------------0-0-0---------------------3-3-3-| \|-0-0-0-10~----10~--0-0-0-10-0-0-10~--0-0-0-10--0-10-8b-0-0-0-0-3-3-3-| \|-0-0-0------0------0-0-0----0-0------0-0-0-----0-------0-0-0-0-3-3-3-| \
. . . . . . . . . Repeat 2x /|---------------------------------------------------------------------| /|---------------------------------------------------------------------| /|---------------------------------------------------------------------| /|-0-0-0-------------0-0-0-------------0-0-0---------------------------|/|-0-0-0-10~----10~--0-0-0-10-0-0-10~--0-0-0-10--0-10-8b-0-0-0-5-3-0---||-0-0-0------0------0-0-0----0-0------0-0-0-----0-------0-0-0-------6-| . . . . . . . .
Outro|----------||----------||----------||-0------0-||-0--0-0-0-||-0--0-0-0-| . .
Check out my band while you're at it. ;D http://www.myspace.com/xiiiasylum
Tap to rate this tab
 
# A B C D E F G H I J K L M N O P Q R S T U V W X Y Z